Song name
# A B C D E F G H I J K L M N O P Q R S T U V W X Y Z

Smashing Pumpkins - Rudolph The Red Nosed Reindeer tab

#----------------------------------PLEASE NOTE---------------------------------#
#This file is the author's own work and represents their interpretation of the #
#song. You may only use this file for private study, scholarship, or research. #
#------------------------------------------------------------------------------##
Tabbed by Brian McCall 

RUDOLPH THE RED NOSED REINDEER - as performed by Smashing Pumpkins
======= === === ===== ========

the vast majority of this is paired up/down strokes.

|------------------------------------------|
|------------------------------------------|
|------------------------------------------|
|-2-2-4-4-2-2-4-4-2-2-4-4-2-2-4-4----------|
|-0-0-0-0-0-0-0-0-0-0-0-0-0-0-0-0----------|
|------------------------------------------|

repeat until

 "...nose, and if..."
|------------------------------------------|
|------------------------------------------|
|------------------------------------------|
|------------------------------------------|
|-2-2-4-4-2-2-4-4-2-2-4-4-2-2-4-4----------|
|-0-0-0-0-0-0-0-0-0-0-0-0-0-0-0-0----------|

then go back and forth between those as appropriate
(ie. listen to the CD/tape)

 "Then..."         "Rudolph.."
|-------------------2----------2--2--2--2--3--3--3--3-|
|-3---------0-------3----------3--3--3--3--3--3--3--3-|
|-2----2----1--1-2--2----------4--4--4--4--4--4--4--4-|
|-0----2----2--2-2--0----2-----4--4--4--4--5--5--5--5-|
|-0----0----2--2-0--0----0-----2--2--2--2--5--5--5--5-|
|-----------0------------------2--2--2--2--3--3--3--3-|
                                           ^folow the
                                           recording's
                                           rhythm.

repeat opening riffs but for end play an A open |X0222X|
instead of the A riff (History part).  End on A open.
Tap to rate this tab
# A B C D E F G H I J K L M N O P Q R S T U V W X Y Z