Song name
# A B C D E F G H I J K L M N O P Q R S T U V W X Y Z

Smashing Pumpkins - Spaced tab

---------------------------------------------------------------------
	        Spaced - The Smashing Pumpkins
---------------------------------------------------------------------

By:  Billy Corgan	

e|-----------------------------------------------------------------|
B|-----------------------------------------------------------------|
G|--------0------------0-------------------------------------------|
D|------4------------2---------------------------------------------|
A|----5------------3-----------------------------------------------|
E|--3------------1-------------------------------------------------|

=====================================================================
TAB by: Davidcybo
Tap to rate this tab
 
# A B C D E F G H I J K L M N O P Q R S T U V W X Y Z