Song name
# A B C D E F G H I J K L M N O P Q R S T U V W X Y Z

Smashing Pumpkins - Suffer tab

Help us improve GuitareTab! Take a short survey!
#----------------------------------PLEASE NOTE---------------------------------#
#This file is the author's own work and represents their interpretation of the #
#song. You may only use this file for private study, scholarship, or research. #
#------------------------------------------------------------------------------##
                              Suffer
                             from Gish
                      Transcribed by Adam Morris

    This is one of the few that wasn't at Nevada so I thought I'd give
    it a go!!!

b=bend
h=hammer on
p=pull-off

Standard Tuning

Main Riff/Verse Part I
~~~~~~~~~~~~~~~~~~~~~~
Guitar 1
E------------------------------------------------------|
B------------------------------------------------------|
G-3p2--2--2--2--3p2--2--2--2--3p2--2--2--2--3p2--2--2--|
D-0-0--0--0--0--0-0--0--0--0--0-0--0--0--0--0-0--0--0--|
A-0-0--0--0--0--0-0--0--0--0--0-0--0--0--0--0-0--0--0--|
E------------------------------------------------------|

-----------------------------------------------------|
-----------------------------------------------------|
-----9b------------9b--------------9b---------9b-----|
-----------------------------------------------------|
-----------------------------------------------------|
-----------------------------------------------------|
"All that you suffer is all that you are........"

 Verse Part II
|-----------------------------------|
|--1--1--1--0--0--0--0--------------|
|--0--0--0--0--0--0--0--0--0--0--0--|
|--2--2--2--2--2--2--2--2--2--2--2--|
|--3--3--3--3--3--3--3--3--3--3--3--|
|-----------------------------------|
"and you're saying you're seeing........"

Slower bit
--2------2--2--2--2--1--1--1--1--1-----------3-----|
--0------3--3--3--3--1--1--1--1--1--------3--3-----|
--2------2--2--2--2--1--1--1--1--1-----0--0--0-----|
--0------0--0--0--0--3--3--3--3--3--2--2--2--2-----|
--2------------------3--3--3--3--3--2--2--2--2-----|
---------------------1--1--1--1--1--0--0--0--0-----|
                                      "All may say......."

Even slower bit
<--------C---------->      <------D----------|
---------0-------------|-------------2-------|  This part goes for a while.
---------1-------------|----------3-----2----|  It mainly alternates from
------0-----0----------|-------2-------------|  the C riff to the D riff.
2--2--------------2----|-------0-------------|
3----------------------|---------------------|
-----------------------|---------------------|
"Too late to discover....."


                             -----3---|
                             --1--3---|
                             --0--0---|
                             --2--0---|
                             --3--2---|
                             -----3---|
 " I will wait for you....."

I think that's pretty much thw whole song.  I am not positive it is right,
but I played along with the CD and it sounded OK.
E-mail me with comments, suggestions, or just to let me know that you
downloaded it and are using it.  (PLEASE REPLY!!!!  It took me hours to type
up and transcribe)

Adam Morris
benmo@deakin.edu.au
Related for Suffer tab