Song name
# A B C D E F G H I J K L M N O P Q R S T U V W X Y Z

Smashing Pumpkins - Where Boys Fear To Tread tab

Where Boys Fear to Tread
Melon Collie And The Infinite Sadness
The Smashing Pumpkins

for this song you need to tune down to dropped D and then tune downa half step 
to C#. the lead in this song is so quiet at some points that it was impasible for 
me to figur out.

hope you like it.

intro 1
G1
|-------------------------X---------X---------|
|-------------------------X---------X---------|
|-------------------------X---------X---------|
|---------0-0-0-0-0-0-0-0-X--0-0--0-X-0---0000|
|---------0-0-0-0-0-0-0-0-X--0-0--0-X-0---0000|
|-8/2-0---0-0-0-0-0-0-0-0-X--0-0--0-X-0---0000|

|-----------------X------| X4
|-----------------X------|
|-----------------X------|
|--0-0--0-0--0-0--X--0000|
|--0-0--0-0--0-0--X--0000|
|--0-0--0-0--0-0--X--0000|

|-----------------X------|
|-----------------X------|
|-----------------X------|
|--0-0--0-0--0-4--X--0000|
|--0-0--0-0--0-4--X--0000|
|--0-0--0-0--0-4--X--0000|

|-----------------X-|X2|-------|
|-----------------X-|  |-------|
|-----------------X-|  |-------|
|--3-3--3-3--3-3--X-|  |-------|
|--3-3--3-3--3-3--X-|  |-------|
|--1-1--1-1--1-1--X-|  |-(6\0)-|

G2

this is a ruff estamentof the lead. if you really want to know how to play 
this than emal me at jobforawayne@hotmail.com and i will spind more time on it.

|--------------------------------------------------------------------------|
|12~~~~~~----------------9~~~~~~--11b--------------------------------------| 
|---------11/12\------------------------------5b~~~--3/1--7/11\9-------7-7-|
|---------------------------------------------------(pluck until intro 2)^-|
|--------------------------------------------------------------------------|
|--------------------------------------------------------------------------|

then feedback

inero 2 
G2
for lead go down the neak from 12 wall using wamy bar and using lots of distorthion

G1 
|------------------------------------|X4
|------------------------------------|
|------------------------------------|
|------------------------------------|
|--2/5\2---------2-------------------|
|--------4--0--0---0--2-2-2-2-2-2-2-2|


riff 1
G1
|-----------------------------------|X4
|-----------------------------------|
|-----------------------------------|
|--7\5--5--2--2-5-0--4-4-4-4-4-4-4-4|
|--7\5--5--2--2-5-0--4-4-4-4-4-4-4-4|
|--5\3--3--0--0-3-0--2-2-2-2-2-2-2-2|

G1(2 time around) 
|----------------------|X4
|----------------------|
|----------------------|
|--7\5--5--2--2-5-0----|
|--7\5--5--2--2-5-0----|
|--5\3--3--0--0-3-0--8b|

G1
riff2
|--------------------------------|X4
|--------------------------------|
|--------------------------------|
|--3-3-3-3--3-3-3--3-3-3-3-3-5-4-|
|--3-3-3-3--3-3-3--3-3-3-3-3-5-4-|
|--1-1-0-1--1-0-1--1-1-1-1-1-3-2-|

riff 3(at end)
G1
|----------------------|
|----------------------|
|----------------------|
|--3--3-3--3-3---------|
|--3--3-3--3-3----8-8--|
|--3--0-3--0-3---------|

END
G1
|-----------|
|-----------|
|-----------|
|--7\5--5--2|
|--7\5--5--2|
|--5\3--3--0|

Key
  / slid up
  \ slid down
  ~ consistint bindingh
  b single bind
  ()optional 
that is whut I came up with. 
if you find anything rong than emal me at jobforawayne@hotmail.com
Tap to rate this tab
# A B C D E F G H I J K L M N O P Q R S T U V W X Y Z