Song name
# A B C D E F G H I J K L M N O P Q R S T U V W X Y Z

Smashing Pumpkins - X Y U tab

#

Song:X.Y.U.
Artist:The smashing pumpkins
Tab by:Colin Elliott (zeroman)

	For those of you who like the pumpkins and are just starting the 
guitar this is a good song, an easy song, and simple to sing with.  
                                      
Intro/main:                 (3x)    
|--------------------------------|-----------------------------------|
|--------------------------------|-----------------------------------|
|15--------------11--------------|15--------------11----11/12-12/14--|
|-X---------------X--------------|-X---------------X-----X/-X--X/-X--|
|13---------------9--------------|13---------------9-----9/10-10/12--|   
|--0-0-0-0-0-0-0---0-0-0-0-0-0-0-|--0-0-0-0-0-0-0---0-0--------------|
note: on intro G2 plays the open strings off a little


(main)
She didn't wanna be.....

Riff 1:
|----------------------------------|
|----------------------------------|
|----------------------------------|
|5---5-------------5----5----------|
|5---5-------------5----5----------|
|3-0-3--0--0--0--0-3----3----------|
 I   hurt where i can't feel.....

(main)
KA-BOOM....

(Riff 1)
I am made of shamrocks....

(main)
and I said I wanna fill you up....

Riff 2:
|--------------------------------|
|--------------------------------|
|--------------------------------|
|4-------8-------4-----4/5-5\4---|
|4-------8-------4-----4/5-5\4---|
|2-0-0-0-6-0-0-0-2-0-0-2/3-3\2-0-|

(Riff 2)
Mary had a little lamb....


~~*****PAUSE*****~~

(main) 
now we begin descent....

the rest of the song is alot like Riff 2 
|----------------------------|
|----------------------------|
|----------------------------|
|4-------8---8---4-------8-7-|
|4-------8---8---4-------8-7-|
|2-0-0-0-6-0-6-0-2-0-0-0-6-5-|

	                    Enjoy
Tap to rate this tab
 
# A B C D E F G H I J K L M N O P Q R S T U V W X Y Z