Song name
# A B C D E F G H I J K L M N O P Q R S T U V W X Y Z

Smashing Pumpkins - Frail And Bedazzled tab

Tuning: D A D G B E


INTRO - With Flanger
|---------------------------------------------------|
|---------------------------------------------------|
|---------------------------------------------------|
|---------------------------------------------------|
|-0-0-0-5p0-0-0-0-0-5p0-5p0-0-0-0-5p0-0-0-0-5--0-5--|
|---------------------------------------------------|

|---------------------------------------------------|
|---------------------------------------------------|
|---------------------------------------------------|
|-------------------------------------------7----7--|
|-0-0-0-5p0-0-0-0-0-5p0-5p0-0-0-0-5p0-0-0-0-5--0-5--|
|---------------------------------------------------|


VERSE
                                                  x4
|---------------------------------------------------|
|---------------------------------------------------|
|---------------------------------------------------|
|-7-7-7-7---7-7-7-7-7---7---7-7-7-7---7-7-7-7--7-7--|
|-0-0-0-5p0-0-0-0-0-5p0-5p0-0-0-0-5p0-0-0-0-5--0-5--|
|---------------------------------------------------|


CHORUS - Play the following 2x

              x7
|---------------|---------------|
|---------------|---------------|
|---------------|---------------|
|-7-7-7-7-7-7-7-|-7-7-7-7--7-7--|
|-0-0-0-5-0-0-0-|-0-0-0-5--0-5--|
|---------------|---------------|


SOLO

 Rhythm                                           x2
|---------------------------------------------------|
|---------------------------------------------------|
|---------------------------------------------------|
|-7-7-7-7---7-7-7-7-7---7---7-7-7-7---7-7-7-7--7-7--|
|-0-0-0-5p0-0-0-0-0-5p0-5p0-0-0-0-5p0-0-0-0-5--0-5--|
|---------------------------------------------------|


Lead - With harmonizer to double 1 octave lower x2
|-10p9-10----10p9-10----10p9-10------------------|
|---------8----------8----------8~~--7h8p7---7~~-|
|------------------------------------------9-----|
|------------------------------------------------|
|------------------------------------------------|
|------------------------------------------------|


VERSE 2

|-----------|
|-----------|
|-----------|
|-7-7--7-7--|
|-0-5--0-5--|
|-----------|

                                                  x3
|---------------------------------------------------|
|---------------------------------------------------|
|---------------------------------------------------|
|-7-7-7-7---7-7-7-7-7---7---7-7-7-7---7-7-7-7--7-7--|
|-0-0-0-5p0-0-0-0-0-5p0-5p0-0-0-0-5p0-0-0-0-5--0-5--|
|---------------------------------------------------|


BRIDGE
                          x4
|---------------------------|
|---------------------------|
|---7---7---7---7---------2-|
|---7---7---7---7---------2-|
|-0-5-0-5-0-5-0-5-5-4-(2)-0-|
|---------------------------|


BRIDGE 2
                          x4
|---------------------------|
|---------------------------|
|---------------------------|
|-0-5-0-5-0-5-0-5-5-4-(2)-0-|
|-0-5-0-5-0-5-0-5-5-4-(2)-0-|
|-0-5-0-5-0-5-0-5-5-4-(2)-0-|


SOLO 2

 Rhythm           x4
|-------------------|
|-------------------|
|-----7-------------|
|-0---7---0-5-0-5---|
|-0---5---0-5-0-5---|
|-0-------0-5-0-5---|


 Lead
|-----------------------------------------------------------------------|
|-7/8-8-8-8/10-10-10--12-12-12-12\10-10\8-----------------12r10---------|
|------------------------------------------11r9-7-9b11~~--------7/9-----|
|-------------------------------------------------------------------7~~-|
|-----------------------------------------------------------------------|
|-----------------------------------------------------------------------|


BRIDGE 3
                  x7
|-------------------|
|-------------------|
|-----7-------------|
|-0---7---0-5-0-5---|
|-0---5---0-5-0-5---|
|-0-------0-5-0-5---|

|---------------------|
|---------------------|
|-----7---------------|
|-0---7---0-5-0-6-(7)-|
|-0---5---0-5-0-6-(7)-|
|-0-------0-5-0-6-(7)-|


CHORUS 2

|-----------|
|-----------|
|-----------|
|-7-7--7-7--|
|-0-5--0-5--|
|-----------|

              x7
|---------------|---------------|
|---------------|---------------|
|---------------|---------------|
|-7-7-7-7-7-7-7-|-7-7-7-7--7-7--|
|-0-0-0-5-0-0-0-|-0-0-0-5--0-5--|
|---------------|---------------|

             x15
|---------------|---------------|
|---------------|---------------|
|---------------|---------------|
|-7-7-7-7-7-7-7-|-7-7-7-7--7-7--|
|-0-0-0-5-0-0-0-|-0-0-0-5--0-5--|
|---------------|---------------|

|---------------------|
|---------------------|
|---------------------|
|-5-0-5-0-5-0-5-0-5-6-|
|-5-0-5-0-5-0-5-0-5-6-|
|-5-0-5-0-5-0-5-0-5-6-|


SOLO 3

 Rhythm                                           x3
|---------------------------------------------------|
|---------------------------------------------------|
|---------------------------------------------------|
|-7-7-7-7---7-7-7-7-7---7---7-7-7-7---7-7-7-7--7-7--|
|-0-0-0-5p0-0-0-0-0-5p0-5p0-0-0-0-5p0-0-0-0-5--0-5--|
|---------------------------------------------------|

End on
|------------------------------------------------------------|
|------------------------------------------------------------|
|-------------------------------------------7--6-------------|
|-7-7-7-7---7-7-7-7-7---7---7-7-7-7---7-7-7-7--6--5\\\\-0----|
|-0-0-0-5p0-0-0-0-0-5p0-5p0-0-0-0-5p0-0-0-0-5--4--5\\\\-0----|
|-------------------------------------------------5\\\\-0----|
                                         slow slide^


Lead - With harmonizer to double 1 octave lower x2
|-10p9-10----10p9-10----10p9-10----------------|
|---------8----------8----------8--7h8p7---7~~-|
|----------------------------------------9-----|
|----------------------------------------------|
|----------------------------------------------|
|----------------------------------------------|


|----------------------------14-15-17b19~~~~--|
|-------------------14-15-17------------------|
|----------12-14-16---------------------------|
|-12-14-16------------------------------------|
|---------------------------------------------|
|---------------------------------------------|
Tap to rate this tab
# A B C D E F G H I J K L M N O P Q R S T U V W X Y Z