Song name
# A B C D E F G H I J K L M N O P Q R S T U V W X Y Z

Smashing Pumpkins - Let Me Give The World To You tab

=============================================================================

Song: Let Me Give The World To You (Acoustic)
Artist: Smashing Pumpkins
Album: Machina Acoustic Demos
Tabbed by: Charlie Lewis
Email: sci-fi-lullaby@hotmail.co.uk

This is a tab for the acoustic version of 'let me give the world to you', its pretty
similar to the album version so will be easy for you to play even if you havent
heard the acoustic one. There are a couple of quite far stretches in the intro and verse
but use your little finger on the Db string you should get used to it, lol sorry if that
sounds patronising :)
Please rate!

Tuning: Half step down

Chords in Song:


      C#m7     E       A       Am      B       F#     EM7    Asus2

eb||---0---|---0---|---0---|---0---|---2---|---2---|---0---|---0---||
Bb||---6---|---0---|---2---|---1---|---4---|---2---|---0---|---0---||
Gb||---5---|---1---|---2---|---2---|---4---|---3---|---1---|---2---||
Db||---5---|---2---|---2---|---2---|---4---|---4---|---1---|---2---||
Ab||---4---|---2---|---0---|---0---|---2---|---4---|---2---|---0---||
Eb||-------|---0---|-------|-------|---2---|---2---|-------|-------||

You probably already know the layout if you are learning the tab but here it is anyway:

INTRO - VERSE 1 - CHORUS 1 - 'POST-CHORUS' - VERSE 2 - CHORUS 2 - BRIDGE - CHORUS/OUTRO


 INTRO/VERSE 1:

    1   2   3   4    1   2   3   4    1   2   3   4    1   2   3   4
eb||----------------|----------------|------0---0---0-|--0---0---0-----||
Bb||----------------|----------------|------0---0---0-|--0---0---0-----||
Gb||----------------|----------------|1---1-1---1---1-|--1---1---1-----||
Db||4---4-6---6---4-|--4---6---6-----|2---2-2---2---2-|--2---2---2-----||
Ab||2---2-2---2---2-|--2---2---2-----|4---4-4---4---4-|--4---4---4-----||
Eb||0---0-0---0---0-|--0---0---0-----|0---0-0---0---0-|--0---0---0-----||


    1   2   3   4    1   2   3   4    1   2   3   4
eb||0---0-0---0---0-|--0---0---0-----|0---0-0---0---0-||
Bb||0---0-0---0---0-|--0---0---0-----|0---0-0---0---0-||
Gb||1---1-1---1---1-|--1---1---1-----|2---2-2---2---2-||
Db||1---1-1---1---1-|--1---1---1-----|2---2-2---2---2-||
Ab||2---2-2---2---2-|--2---2---2-----|0---0-0---0---0-||
Eb||0---------------|----------------|----------------||


 CHORUS:

  C#m7                             E      EM7
  Let me give the world to you, my love

  A               Am               E      EM7
  Let me give the world to you, my love

  C#m7                              A
  Let me show you what I'm thinking of,

  A               Am              E
  Let me give the world to you my love.

(This E continues below in a kind of 'post chorus' where I think billy would be singing
far' in the album version...)

 'POST CHORUS!':

...love
    1   2   3   4    1   2   3   4    1   2   3   4    1   2   3   4
eb||0---0-0---0---0-|--0---0---0-----|0---0-0---0---0-|--0---0---0---0-|
Bb||0---0-0---0---0-|--0---0---0-----|2---2-2---2---2-|--2---2---2---2-|
Gb||1---1-1---1---1-|--1---1---1-----|2---2-2---2---2-|--2---2---2---2-|
Db||2---2-2---2---2-|--2---2---2-----|2---2-2---2---2-|--2---2---2---2-|
Ab||2---2-2---2---2-|--2---2---2-----|0---0-0---0---0-|--0---0---0---0-|
Eb||0---0-0---0---0-|--0---0---0-----|0---0-0---0---0-|--0---0---0---0-|

    1   2   3   4    1   2   3   4    1   2   3   4
eb||------0---0---0-|--0---0---0-----|0---0-0---0---0-|
Bb||------0---0---0-|--0---0---0-----|0---0-0---0---0-|
Gb||1---1-1---1---1-|--1---1---1-----|2---2-2---2---2-|
Db||2---2-2---2---2-|--2---2---2-----|2---2-2---2---2-|
Ab||4---4-4---4---4-|--4---4---4-----|0---0-0---0---0-|
Eb||0---0-0---0---0-|--0---0---0-----|----------------|

 THEN TO VERSE 2:

    1   2   3   4    1   2   3   4    1   2   3   4    1   2   3   4
eb||----------------|----------------|------0---0---0-|--0---0---0-----||
Bb||----------------|----------------|------0---0---0-|--0---0---0-----||
Gb||----------------|----------------|1---1-1---1---1-|--1---1---1-----||
Db||4---4-6---6---4-|--4---6---6-----|2---2-2---2---2-|--2---2---2-----||
Ab||2---2-2---2---2-|--2---2---2-----|4---4-4---4---4-|--4---4---4-----||
Eb||0---0-0---0---0-|--0---0---0-----|0---0-0---0---0-|--0---0---0-----||


    1   2   3   4    1   2   3   4    1   2   3   4
eb||0---0-0---0---0-|--0---0---0-----|0---0-0---0---0-||
Bb||0---0-0---0---0-|--0---0---0-----|0---0-0---0---0-||
Gb||1---1-1---1---1-|--1---1---1-----|2---2-2---2---2-||
Db||1---1-1---1---1-|--1---1---1-----|2---2-2---2---2-||
Ab||2---2-2---2---2-|--2---2---2-----|0---0-0---0---0-||
Eb||0---------------|----------------|----------------||

 CHORUS 2:

  C#m7                             E     EM7
  Let me give the world to you, my love

  A               Am               E     EM7
  Let me give the world to you, my love

  A                  C#m7              F#
  Times were hard and we're the last in line,

         A               Am                 E
  'Cause in my grief I'd forgotten what was mine.


 BRIDGE:

  E     Asus2               EM7
  And I wouldn't change a thing,

  EM7
  No I, No I

  E    Asus2             B
  No I wouldn't change a thing about the way you are,

      C#m7                      Asus2
  The distance here the speed so far


  So far....                     ...so far
    1   2   3   4    1   2   3   4    1   2   3   4    1   2   3   4
eb||----------------|----------------|------0---0---0-|--0---0---0-----||
Bb||----------------|----------------|------0---0---0-|--0---0---0-----||
Gb||----------------|----------------|1---1-1---1---1-|--1---1---1-----||
Db||4---4-6---6---4-|--4---6---6-----|2---2-2---2---2-|--2---2---2-----||
Ab||2---2-2---2---2-|--2---2---2-----|4---4-4---4---4-|--4---4---4-----||
Eb||0---0-0---0---0-|--0---0---0-----|0---0-0---0---0-|--0---0---0-----||

  ...so far
    1   2   3   4    1   2   3   4    1   2   3   4
eb||0---0-0---0---0-|--0---0---0-----|0---0-0---0---0-||
Bb||0---0-0---0---0-|--0---0---0-----|0---0-0---0---0-||
Gb||1---1-1---1---1-|--1---1---1-----|2---2-2---2---2-||
Db||1---1-1---1---1-|--1---1---1-----|2---2-2---2---2-||
Ab||2---2-2---2---2-|--2---2---2-----|0---0-0---0---0-||
Eb||0---0-0---0---0-|--0---0---0-----|----------------||


  Then play the Intro/Verse chords 3 times while singing chorus lyrics
  End on Asus2, singing 'you'


  LYRICS!

  Last chance to make believe in
  Always and all it seems
  Train wrecks hide underneath
  Your umbrella
  Set the frame
  Destiny, on this last name soliloquy
  Tired symphonies played downward

  Let me give the world to you, my love
  Let me give the world to you, my love
  Let me show you what I'm thinking of
  Let me give the world to you, my love

  Lovers form dead excuse
  And blur the lines with soul abuse
  My lonesome lies just have no use around here
  New skin may hold you in
  But the old skin still turns us on
  Flicker fades the nitrate dawn to where

  Let me give the world to you, my love
  Let me show you what i'm thinking of, my love
  Times are hard and we're the last in line
  'Cause in my grief I'd forgotten what was mine

  And I wouldn't change a thing
  No, I, no, I
  No, I wouldn't change a thing
  About the way you are
  The distance here
  The speed so far
  So far
  So far
  So far

  Let me give the world to you, my love
  Let me give the world to you, my love
  Let me give the world to you
  Let me give the world to you
  Let me give the world to you
  Let me give the world to you
  Let me give the world to you


ENJOY!! Comments or constructive criticism welcome!!

| /  slide up
| \  slide down
| h  hammer-on
| p  pull-off
| ~  vibrato
| +  harmonic
| x  Mute note
===============================================================================
Tap to rate this tab
 
# A B C D E F G H I J K L M N O P Q R S T U V W X Y Z