Guitaretab - guitar tabs
Song name
# A B C D E F G H I J K L M N O P Q R S T U V W X Y Z

Smashing Pumpkins - Fol tab

Tabbed by: Ed Francis
Email: neh?

OK, basically this is only the rhythm guitar part, I'll update when I've completely 
the lead out. This should get yous started though. Lyrics are based round my guesstimates 
timings include to help.

Tuning: Drop D, and then all strings half a step down.

D#
A#
F#
C#
G#
C#

"I set your love about..." (0:00- 0:11)

(palm muted)

|-------------------|
|-------------------|
|-------------------|
|-------------------|
|-0-0-0-0-0-8-8-8---|
|-0-0-0-0-0-8-8-8---|  x3

(palm muted)

|---------------------|
|---------------------|
|---------------------|
|---------------------|
|-0-0-0-0-0-10-10-10--|
|-0-0-0-0-0-10-10-10--|  x1

Repeat that once.

"Can't I please just talk with you?..." (0:11-0:19)

|------------------------------------|
|------------------------------------|
|------------------------------------|
|-5---5-5-7---7-7-8---8-8-0---0-0----|
|-5---5-5-7---7-7-8---8-8-0---0-0----|
|-5---5-5-7---7-7-8---8-8-0---0-0----|

Repeat once.

"Come on and feel our love..." (0:19-0:30)

|-------------------|
|-------------------|
|-------------------|
|-0-0-0-0-0-8-8-8---|
|-0-0-0-0-0-8-8-8---|
|-0-0-0-0-0-8-8-8---|  x3

|-----------------------|
|-----------------------|
|-----------------------|
|-0-0-0-0-0-8-8-8-10-10-|
|-0-0-0-0-0-8-8-8-10-10-|
|-0-0-0-0-0-8-8-8-10-10-|  x1

Repeat once.

"Oh... oh..." (0:31-0:35)
[ Tab from: http://www.guitaretab.com/s/smashing-pumpkins/178786.html ]
|---------------------------|
|---------------------------|
|---------------------------|
|-----0-0-0------10-10-10---|
|-----0-0-0------10-10-10---|
|-----0-0-0------10-10-10---|  x3

"I feel our love..." (0:35-0:41) - might have to work out the rhythm yourself here

|------------------------------------------|
|------------------------------------------|
|------------------------------------------|
|-8----(8)--0----(0)----5----(5)--7----(7)-|
|-8----(8)--0----(0)----5----(5)--7----(7)-|
|-8----(8)--0----(0)----5----(5)--7----(7)-|

"Follow the white hot sun..." (0:41-0:48)

|-----------------------------------|
|-----------------------------------|
|-----------------------------------|
|-0----(0)--10----(10)----5----(5)--|
|-0----(0)--10----(10)----5----(5)--|
|-0----(0)--10----(10)----5----(5)--|  x2

"Now is..." (0:53-1:04)

|-----------------------|
|-----------------------|
|-----------------------|
|-5----(5)--10----(10)--|
|-5----(5)--10----(10)--|
|-5----(5)--10----(10)--|  x3

"A single cross to bear..." (1:09-1:20)

|---------------------------|
|---------------------------|
|---------------------------|
|-----0-0-0------10-10-10---|
|-----0-0-0------10-10-10---|
|-----0-0-0------10-10-10---|   x3

|------------------------|
|------------------------|
|------------------------|
|-----0-0-0------8-8-8---|
|-----0-0-0------8-8-8---|
|-----0-0-0------8-8-8---|  x1

Repeat once.

That's all you really need to know. After that, the riffs already tabbed out are re-used 
the rest of the song. Enjoy!

| /  slide up
| \  slide down
| h  hammer-on
| p  pull-off
| ~  vibrato
| +  harmonic
| x  Mute note
| ()  Ghost note
Related for Fol tab
Advertisement will be closed in 10 seconds