Guitaretab - guitar tabs
Song name
# A B C D E F G H I J K L M N O P Q R S T U V W X Y Z

Smashing Pumpkins - Perfect Acoustic tab

************************* P L E A S E  N O T E *************************

       You may only use this tab for private study, research, etc.       
        Do not change, deface, mutilate, steal or alter this tab.       
    You must email me first if you want to use this tab on your site.    

 ************************* P L E A S E  N O T E *************************




--Title: Perfect (Live Acoustic as played on 9/28/2007)
--Artist: The Smashing Pumpkins
--Release: Adore
--Last updated: 3/26/09

--Transcription by: J. Elliott Dozier
--Contact: elliott_dozier@hotmail.com


--Tuning: C# G# C# F# G# Eb (From standard tuning, first tune down half a step, 
then drop D, then tune the B string down a whole step)

NOTE: I’m not going to bother with rhythm.

--INTRO

He strums this first to check the tuning...
|--0---|
|--0---|
|--2---|
|--0---|
|--0---|
|--0---|

		   x 2
|---5---\2---3-2-0---|
|---0----0---0-0-0---|
|---7---\4---0-0-0---|
|---0----0---0-------|
|------------2-------|
|------------x-------|


|---5---\2---3-2-0---0-0---0---|
|---0----0---0-0-0---0-0---0---|
|---7---\4---0-0-0---2-0---0---|
|---0----0---0-------4-4---0---|
|------------2-------0-0---2---|
|------------x-------x-x---2---|


--VERSE 1

“I Know...”		  x 2
|------------------0---0---|
|---0---0--0---0---0---0---|
|---x---x--x---x---0---0---|
|---2h4-4--2h4-4---4---0---|
|---0---0--0---0---2---2---|
|---0---0--0---0---x---x---|

“...that lovers...”
|------------------0---0-----0-0---0---|
|---0---0--0---0---0---0-----0-0---0---|
|---x---x--x---x---0---0-----2-0---0---|
|---2h4-4--2h4-4---4---0-----4-4---0---|
|---0---0--0---0---2---2-----0-0---2---|
|---0---0--0---0---x---x-----x-x---2---|

“We are...”		  x 2
|------------------0---0---|
|---0---0--0---0---0---0---|
|---x---x--x---x---0---0---|
|---2h4-4--2h4-4---4---0---|
|---0---0--0---0---2---2---|
|---0---0--0---0---x---x---|

“...that something...”
|------------------0---0-----0-0---0-0---|
|---0---0--0---0---0---0-----0-0---0-0---|
|---x---x--x---x---0---0-----2-0---0-0---|
|---2h4-4--2h4-4---4---0-----4-4---0-4---|
|---0---0--0---0---2---2-----0-0---5-5---|
|---0---0--0---0---x---x-----x-x---5-5---|


--PRECHORUS 1A

“But please...”
|---0---0-0---------------------------|
|---0---0-0---0---0---0---0---0---0---|
|---0---0-0---x---x---x---x---x---x---|
|---0---0-4---7~--4~--2~--4~--2~--4~--|
|---2---5-5---0---0---0---0---0---0---|
|---2---5-5---0---0---0---0---0---0---|

“Next time...”
|---0-0---0---|
|---0-0---0---|
|---0-0---0---|
|---0-4---0---|
|---5-5---2---|
|---5-5---2---|

--CHORUS 1

“Perfect...”	    x 4
|-------------0---0---|
|---0---0-----0---0---|
|---x---x-----0---0---|
|---7~--4~----4---0---|
|---0---0-----2---2---|
|---0---0-----x---x---|

“...memories unwind...”
|-------------0---0----0-0---0-0---|
|---0---0-----0---0----0-0---0-0---|
|---x---x-----0---0----2-0---0-0---|
|---7~--4~----4---0----4-4---0-4---|
|---0---0-----2---2----0-0---5-5---|
|---0---0-----x---x----x-x---5-5---|

--PRECHORUS 1B

“So far...”
|---0---0-0---------------------------|
|---0---0-0---0---0---0---0----0--0---|
|---0---0-0---x---x---x---x----x--x---|
|---0---0-4---7~--9~--7~-\4\2~-2~-4~--|
|---2---5-5---0---0---0---0----0--0---|
|---2---5-5---0---0---0---0----0--0---|

“But now...”
|---0-0---0---|
|---0-0---0---|
|---0-0---0---|
|---0-4---0---|
|---5-5---2---|
|---5-5---2---|

[ Tab from: http://www.guitaretab.com/s/smashing-pumpkins/181718.html ]
--INTERLUDE
		   x 2
|---5---\2---3-2-0---|
|---0----0---0-0-0---|
|---7---\4---0-0-0---|
|---0----0---0-------|
|------------2-------|
|------------x-------|

|---5---\2---3-2-0---|
|---0----0---0-0-0---|
|---7---\4---0-0-0---|
|---0----0---0-------|
|------------2-------|
|------------x-------|


--VERSE 2

“Angel...”		  x 2
|------------------0---0---|
|---0---0--0---0---0---0---|
|---x---x--x---x---0---0---|
|---2h4-4--2h4-4---4---0---|
|---0---0--0---0---2---2---|
|---0---0--0---0---x---x---|

“The letters...”
|------------------0---0-----0-0---0---|
|---0---0--0---0---0---0-----0-0---0---|
|---x---x--x---x---0---0-----2-0---0---|
|---2h4-4--2h4-4---4---0-----4-4---0---|
|---0---0--0---0---2---2-----0-0---2---|
|---0---0--0---0---x---x-----x-x---2---|


--PRECHORUS 2

“So please...”
|---0---0-0---------------------------|
|---0---0-0---0---0---0---0---0---0---|
|---0---0-0---x---x---x---x---x---x---|
|---0---0-4---7~--4~--2~--4~--2~--4~--|
|---2---5-5---0---0---0---0---0---0---|
|---2---5-5---0---0---0---0---0---0---|

“You’ll see...”
|---0-0---0---|
|---0-0---0---|
|---0-0---0---|
|---0-4---0---|
|---5-5---2---|
|---5-5---2---|


--CHORUS 2

“Perfect...”	    x 4
|-------------0---0---|
|---0---0-----0---0---|
|---x---x-----0---0---|
|---7~--4~----4---0---|
|---0---0-----2---2---|
|---0---0-----x---x---|

“...but lovers...”
|-------------0---0----0-0---0-0---|
|---0---0-----0---0----0-0---0-0---|
|---x---x-----0---0----2-0---0-2---|
|---7~--4~----4---0----4-4---0-0---|
|---0---0-----2---2----0-0---2-2---|
|---0---0-----x---x----x-x---2-2---|

“Perfect...”	    x 2
|-------------0---0---|
|---0---0-----0---0---|
|---x---x-----0---0---|
|---7~--4~----4---0---|
|---0---0-----2---2---|
|---0---0-----x---x---|

“...we promised...”
|-------------0---0----0-0---0---|
|---0---0-----0---0----0-0---0---|
|---x---x-----0---0----2-0---0---|
|---7~--4~----4---0----4-4---0---|
|---0---0-----2---2----0-0---2---|
|---0---0-----x---x----x-x---2---|


--OUTRO

“Perfect...”	   x 2
|---5---\2---3-2-0---|
|---0----0---0-0-0---|
|---7---\4---0-0-0---|
|---0----0---0-------|
|------------2-------|
|------------x-------|


|---5---\2---3-2-0---0--0--0---|
|---0----0---0-0-0---0--0--0---|
|---7---\4---0-0-0---2--0--0---|
|---0----0---0-------4--4--0---|
|------------2-------0--5--2---|
|------------x-------x--5--2---|

Ends on...
|--0---|
|--0---|
|--2---|
|--0---|
|--0---|
|--0---|



THE END!!!!!!!!!!!!!!!!!!!!!!!!!!!


b   - bend
r   - release
gb  - gradual bend
gr  - gradual release
h   - hammer on
p   - pull off
T   - trill
W   - whammy bar dive
\   - slide down
/   - slide up
x   - mute
X\  - pick slide
~~~ - vibrato
*7  - artificial harmonic
*7* - natural harmonic
... - palm mute
(0) - optional note
XXX - tremolo pick
alt - variation of riff

--LYRICS

i know
we're just like old friends
we just can't pretend
that lovers make amends

we are
reasons so unreal
we can't help but feel
that something has been lost

but please
you know you're just like me
next time
i promise we'll be perfect
perfect

perfect
strangers down the line
lovers out of time
memories unwind

so far i still know who you are
but now i wonder who i was

angel
you know it's not the end
we'll always be good friends
but the letters have been sent on

so please
you always were so free
you'll see
i promise we'll be perfect
perfect

perfect
strangers when we meet
strangers on the street
lovers while we sleep

perfect
you know this has to be
we always were so free
we promised that we'd be
perfect
Related for Perfect Acoustic tab