Guitaretab - guitar tabs
Song name
# A B C D E F G H I J K L M N O P Q R S T U V W X Y Z

Smashing Pumpkins - Owata tab

Hey SP fans,

Here is my attempt at this beautuful song by the one and only SP!
You will get the hang of the song as it's not too hard. 
Just listen to it to get the hang of the strumming. It's all just down strokes 
apart from the bridge. 
Owata beautiful song! :-)

Have a listen to this version as it's a bit slower so easier to practice.
http://www.youtube.com/watch?v=GAlnlbV9w50

Tuning: DADGBE (Drop D) Capo on 5th fret.

The following is repeated the whole way through apart from where it slows down during bridge.
The lyrics shown within tabs is just the first verse to give you an idea.
For full lyrics, see bottom.



   right off the  | into a moonbeam |to the alien side|
   silver screen  |                 |                 |
E-----------------|-----------------|-----------------|-----------------|
B-----------------|-----------------|---3-3-3-3-0-0-0-|-----------------|
G-----------------|-----------------|-----------------|-----------------|
D-0-4-4-4-4-2-0-0-|-----------------|---2-2-2-0-0-0-0-|-0-4-4-4-4-2-0-0-|
A-----------------|-2-2-2-2-2-0-0-0-|-0-3-3-3-3-0-0-0-|-----------------|
D-----------------|-----------------|-----------------|-----------------| x4


  Cool in your    |  you can unlock |
     Pocket       |    this night   |
E-----------------|-----------------|-----------------|
B-----------------|-----------------|-----------------|
G-----------------|-----------------|-----------------|
D-----------------|-----------------|-0-4-4-4-4-2-0-0-|
A-2-2-2-2-2-2-2-2-|-2-2-2-2-2-2-2-2-|-----------------|
D-----------------|-----------------|-----------------|

[ Tab from: http://www.guitaretab.com/s/smashing-pumpkins/182549.html ]
   Cool in your   |    you can't    |you can't help but
      Pocket      |    unlock it    |decide its alright
E-----------------|-----------------|-----------------|
B-----------------|-----------------|---------3-3-3-0-|
G-----------------|-----------------|-----------------|
D-----------------|-----------------|-5-5-5-7-2-2-2-0-|
A-2-2-2-2-2-2-2-2-|-2-2-2-2-2-2-2-2-|---------3-3-3-0-|
D-----------------|-----------------|-----------------| Then back to top


This should get you going.....

Then where I have marked * on the lyrics below, the song slows down. 
During this just play....

E-----------------|-----------------|
B-----------------|--3---3----------|
G-----------------|-----------------|
D--4---4/7\5---5--|--2---2----------|
A-----------------|--3---3---2--0---|
D-----------------|-----------------|


Lyrics...(Unconfirmed)

Right off the silver screen
into a moonbeam
to the alien side
catch up with jesus
the stars beneath us
oh what a beautiful night

Cool in your pocket
you can unlock this night
cool in your pocket
you can unlock it
you can't help but decide
it's alright

oh what a beautiful sight
you are to me
oh what a beautiful night

Cool in your pocket
rocks for your rocket ride
cool in your pocket
you can unlock this
you can't stop this night
outside

Oh what a beautiful sight

Start up the revelry
roll out the cavalry
into the waters we dive
shimmers on the cosmos
ripple the uppermost
of the quivering tide

Locks for your locket
you can unlock its fist
rocks for your rocket
you can unlock it
shots for your socket eyes
that shine.....

Oh what a beautiful sight
you are to me
oh what a beautiful night

Oh what a beautiful sight
you are to me
oh what a beautiful night *

Night, night
Oh what a beautiful night

etc.

Owata beautiful tab! Enjoy!

Any feedback, feel free to email me...  wombat77@ihug.co.nz  Thanks!
Related for Owata tab