Song name
# A B C D E F G H I J K L M N O P Q R S T U V W X Y Z

Smashing Pumpkins - This Time tab

-------------------------------------------------------------------------------
			     THIS TIME - The Smashing Pumpkins
-------------------------------------------------------------------------------
Tabbed by: Gustavo Collado

Tuning: Eb Ab Db Gb Bb eb


INTRO

Guitar 1
eb|------2r------2r-|
Bb|--4---------4----|
Gb|----4-----4------|X2
Db|-----------------|
Ab|-----------------|
Eb|-----------------|

Guitar 2
eb|------------|
Bb|------------|
Gb|------------|X2
Db|------------|
Ab|------------|
Eb|-(0)/7-\2-0-|


VERSE 1
(This time I need to know. I really must be told if it's over...)
                                   
Guitar 1
eb|------2r------2r-|
Bb|--4---------4----|
Gb|----4-----4------|X2
Db|-----------------|
Ab|-----------------|
Eb|-----------------|

Guitar 2
eb|----------|
Bb|----------|
Gb|----------|X2
Db|----------|
Ab|-2r-------|
Eb|----2r-0r-|


CHORUS 1
(Crashing down, crashing down again...)

Guitar 1
eb|----------------|
Bb|----------------|
Gb|---------(4)/6r-|X2
Db|-666-444-(4)/6r-|
Ab|-666-444-(2)/4r-|
Eb|-444-222-(2)----|

Guitar 2
eb|----------------|
Bb|----------------|
Gb|-444-----(4)/6r-|X2
Db|-444-444-(4)/6r-|
Ab|-222-444-(2)/4r-|
Eb|-----222-(2)----|


VERSE 2
(I've got to move it on. I've got to sing my song ...)

Guitar 1
eb|------2r------2r-|
Bb|--4---------4----|
Gb|----4-----4------|X2
Db|-----------------|
Ab|-----------------|
Eb|-----------------|

Guitar 2
eb|----------|
Bb|----------|
Gb|----------|X2
Db|----------|
Ab|-2r-------|
Eb|----2r-0r-|


CHORUS 2
(Only love yeah,only love can win ...)

Guitar 1
eb|----------------|
Bb|----------------|
Gb|---------(4)/6r-|X4
Db|-666-444-(4)/6r-|
Ab|-666-444-(2)/4r-|
Eb|-444-222-(2)----|

Guitar 2
eb|----------------|
Bb|----------------|
Gb|-444-----(4)/6r-|X2
Db|-444-444-(4)/6r-|
Ab|-222-444-(2)/4r-|
Eb|-----222-(2)----|

eb|-------------2r-|
Bb|-----------4----|
Gb|-444-----4------|X2
Db|-444-444--------|
Ab|-222-444--------|
Eb|-----222--------|


INTERLUDE 1

Guitar 1
eb|-11r-11/16/14r-(14)/16/11r-7r-|
Bb|------------------------------|
Gb|------------------------------|X2
Db|------------------------------|
Ab|------------------------------|
Eb|------------------------------|

Guitar 2 [slightly faded]
eb|----------------|
Bb|----------------|
Gb|-444-----(4)/6r-|X2
Db|-444-444-(4)/6r-|
Ab|-222-444-(2)/4r-|
Eb|-----222-(2)----|


VERSE 3
(This time I need to know. I really must be told if it's over...)

Guitar 1 [muffed]
eb|-11/16/14r---16/11r-|
Bb|--------------------|
Gb|--------------------|X2
Db|--------------------|
Ab|--------------------|
Eb|--------------------|

Guitar 2
eb|--2-2-2-2-2-2-2-2-2-|
Bb|-4-4-4-4-4-4-4-4-4--|
Gb|--------------------|X2
Db|--------------------|
Ab|--------------------|
Eb|--------------------|


CHORUS 3
(Crashing down, crashing down again...)

Guitar 1
eb|----------------|
Bb|----------------|
Gb|-444-----(4)/6r-|X4
Db|-444-444-(4)/6r-|
Ab|-222-444-(2)/4r-|
Eb|-----222-(2)----|

Guitar 2
eb|--2-2-2-2-2-2-2-2-2-|
Bb|-4-4-4-4-4-4-4-4-4--|
Gb|--------------------|X2
Db|--------------------|
Ab|--------------------|
Eb|--------------------|

eb|-14-11-9-11^--7r-|
Bb|-----------------|
Gb|-----------------|X2
Db|-----------------|
Ab|-----------------|
Eb|-----------------|


INTERLUDE 2

Guitar 1
eb|-11r-11/16/14r-(14)/16/11r-7r-|
Bb|------------------------------|
Gb|------------------------------|X2
Db|------------------------------|
Ab|------------------------------|
Eb|------------------------------|

Guitar 2
eb|----------------|
Bb|----------------|
Gb|-444-----(4)/6r-|X2
Db|-444-444-(4)/6r-|
Ab|-222-444-(2)/4r-|
Eb|-----222-(2)----|


VERSE 4
(For every chemical, you trade a piece of your soul...)

Guitar 1
eb|------2r------2r-|
Bb|--4---------4----|
Gb|----4-----4------|X2
Db|-----------------|
Ab|-----------------|
Eb|-----------------|

eb|-------------|
Bb|-------------|
Gb|-9r-6r-9r-6r-|X2
Db|-9r-6r-9r-6r-|
Ab|-7r-4r-7r-4r-|
Eb|-------------|

Guitar 2
eb|----------|
Bb|----------|
Gb|-4r-------|X2
Db|-4r-4r-2r-|
Ab|-2r-4r-2r-|
Eb|----2r-0r-|

eb|-------------|
Bb|-------------|
Gb|-9r-6r-9r-6r-|X2
Db|-9r-6r-9r-6r-|
Ab|-7r-4r-7r-4r-|
Eb|-------------|


CHORUS 4
(Crashing down, crashing down again...)

Guitar 1
eb|-11r-11/16/14r-(14)/16/11r-7r-|
Bb|------------------------------|
Gb|------------------------------|X2
Db|------------------------------|
Ab|------------------------------|
Eb|------------------------------|

eb|-14-11-9-11-(11)-|
Bb|-----------------|
Gb|-----------------|X6
Db|-----------------|
Ab|-----------------|
Eb|-----------------|

Guitar 2 
eb|----------------|
Bb|----------------|
Gb|-444-----(4)/6r-|X6
Db|-444-444-(4)/6r-|
Ab|-222-444-(2)/4r-|
Eb|-----222-(2)----|


END

Guitar 1 & 2
eb|----|
Bb|----|
Gb|-4r-|
Db|-4r-|
Ab|-2r-|
Eb|----|
Tap to rate this tab
# A B C D E F G H I J K L M N O P Q R S T U V W X Y Z