Song name
# A B C D E F G H I J K L M N O P Q R S T U V W X Y Z

Smashing Pumpkins - West Coast chords

Highlighted       Show chord diagrams
Smashing Pumpkins - West Coast (Well actually BC feat Spirits in the Sky) 

This song is so beautiful and I'm sure it will be included in the epic 
forthcoming album.....Teargarden by Kaleidyscope. I can't wait!

Here's an awesome clip of the song... www.youtube.com/watch?v=Jl-4l3bW88M

Throw a capo on the 7th fret and make sure tuning is standard.
Now this tab may not be entirely correct but it sounds right to me.

Enjoy!
 
Intro & Chorus in this order.... (La la la la...)

   G6  Asus2 C  CMaj7  C7  Asus2 Em
E--0----0----0----0----0----0----0--|
B--0----0----1----0----1----0----0--|
G--0----2----0----0----3----2----0--|
D--0----2----2----2----2----2----2--| 
A--2----0----3----3----3----0----2--|     Keep strumming Em until
E--3----0----0----0----0----0----0--| x2  you get to the verse.


Verses: (Happy Monday's....)
            Asus4
   Em   G6  add9 Asus2 A    G6   Em
E--0----0----0----0----0----0----0--|
B--0----0----0----0----2----0----0--|
G--0----0----2----2----2----0----0--|
D--2----0----0----2----2----0----2--|
A--2----2----0----0----0----2----2--|
E--0----3----0----0----0----3----0--|


Bridge: (I'll let you in....)
            
   C    G6   Em  G13 CMaj7  G6   Em   C   G+6   G6   G13  C   G+6   Em
E--0----0----0----0----0----0----0----0----0----0----0----0----0----0-|
B--1----0----0----3----0----0----0----1----0----0----3----1----0----0-|
G--0----0----0----0----0----0----0----0----0----0----0----0----0----0-|
D--2----0----2----0----2----0----2----2----1----0----0----2----1----2-|
A--3----2----2----2----3----2----2----3----2----2----2----3----2----2-|
E--0----3----0----2----0----3----0----0----3----3----2----0----3----0-|

~~~~~~~~~~~~~~~~~~~~~~~~~~~~~~~~~~~~~~~~~~~~~~~~~~~~~~~
  
Lyrics....

Happy Monday's, a little Sunday's surround you.
I am wheezy, for I am freezing beside you.
La la la la la la la la la
La la la la la la la la la

A little wet dream, a little moonbeam surrounds you.
For I am suspect, as the reject beside you.
La la la la la la la la la
La la la la la la la la la

I'll let you in, to find a place, you begin.
I let you drive to my grave.
I'll find a way, to make you pay... I do.
Of the fellowship of men.

A little sickness, a little quickness inside of you.
For I am burnt toast, as this West Coast devours you.
La la la la la la la la la
La la la la la la la la la

La la la la la la la la la
La la la la la la la la la

~~~~~~~~~~~~~~~~~~~~~~~~~~~~~~~~~~~~~~~~~~~~~~~~~~~~~~~

Any comments or corrections please email me....
wombat77@ihug.co.nz  Thanks!



Tap to rate this tab
 
# A B C D E F G H I J K L M N O P Q R S T U V W X Y Z