Song name
# A B C D E F G H I J K L M N O P Q R S T U V W X Y Z

Smashing Pumpkins - Neverlost tab

Technically there are not choruses (sp?) in this song, nontheless, in order
to make the tab easier to read I'll call "chorus" the riff with distortion
that goes just after the main riff. 


-------------------------------------------------------------------------------
			     NEVERLOST - The Smashing Pumpkins
-------------------------------------------------------------------------------
Tabbed by: Gustavo Collado


Tuning: Eb Ab Db Gb Bb Eb




Intro 

Eb|-------------------------------|
Bb|-------------------------------|
Gb|-------------------------------|X2
Db|---3 (3)---5-(5)-------------7-|
Ab|-5-------7---------5-(5)---5---|
Eb|-----------------6-------6-----|


Verse 1
(All hands on deck, settign sail to get wrecked of course ...)

Eb|-------------------------------|
Bb|-------------------------------|
Gb|-------------------------------|X2
Db|---3 (3)---5-(5)-------------7-|
Ab|-5-------7---------5-(5)---5---|
Eb|-----------------6-------6-----|


Chorus 1
(You make what you want of me, I will keep you anyway...)

Eb|---------------------|
Bb|---------------------|
Gb|----------------9----| X2
Db|-7-77--10-1010--10-7-|
Ab|-5-55--8--8-8---x--x-|
Eb|----------------8--5-|


Verse 2
(Lets fill this hours and kill desire...)

Eb|-------------------------------|
Bb|-------------------------------|
Gb|-------------------------------|X4
Db|---3 (3)---5-(5)-------------7-|
Ab|-5-------7---------5-(5)---5---|
Eb|-----------------6-------6-----|


Chorus 2
(Every turn is torture though, every kicking of the drum...)

Eb|---------------------|
Bb|---------------------|
Gb|----------------9----| X2
Db|-7-77--10-1010--10-7-|
Ab|-5-55--8--8-8---x--x-|
Eb|----------------8--5-|

Verse 3
(I've seen the film, I know the place...)

Eb|-------------------------------|
Bb|-------------------------------|
Gb|-------------------------------|X8
Db|---3 (3)---5-(5)-------------7-|
Ab|-5-------7---------5-(5)---5---|
Eb|-----------------6-------6-----|


Chorus 3
(If you think just right, If you love you'll find...)

Eb|-------------------------|
Bb|-------------------------|
Gb|-7--------5-5----------7-|
Db|-7-----7b-5--75---10-7-7-|
Ab|-5-5/7------------10-7-5-|
Eb|-0----------------8--5---|
b=bending

Eb|----------------|
Bb|----------------|
Gb|-7--------5-5---|
Db|-7-----7b-5--75-|
Ab|-5-5/7----------|
Eb|-0--------------|
b=bending


Solo

Eb|--------------------------------------|
Bb|-8/10-13-6r--10-8-5-5b5-5/3/5/3-1h3-5-|
Gb|--------------------------------------|
Db|--------------------------------------|
Ab|--------------------------------------|
Eb|--------------------------------------|

Eb|------8----10-8-10-8/12b-|
Bb|-10-8---10---------------|
Gb|-------------------------|
Db|-------------------------|
Ab|-------------------------|
Eb|-------------------------|


Eb|-13-------12------12/15-13-------12b-|
Bb|----15-13----(13)----------15-13-----|
Gb|-------------------------------------|
Db|-------------------------------------|
Ab|-------------------------------------|
Eb|-------------------------------------|


Chorus 4
(All this is that once forgot...)

Eb|---------------------|
Bb|---------------------|
Gb|----------------9----| X2
Db|-7-77--10-1010--10-7-|
Ab|-5-55--8--8-8---x--x-|
Eb|----------------8--5-|


Verse 4/Outro
(But oh these hours, I lost my place, I'm never lost...)

Eb|-------------------------------|
Bb|-------------------------------|
Gb|-------------------------------|X7
Db|---3 (3)---5-(5)-------------7-|
Ab|-5-------7---------5-(5)---5---|
Eb|-----------------6-------6-----|
Tap to rate this tab
 
# A B C D E F G H I J K L M N O P Q R S T U V W X Y Z