Song name
# A B C D E F G H I J K L M N O P Q R S T U V W X Y Z

Smashing Pumpkins - Blast tab

Blast, Gravity Demos - Smashing Pumpkins


Eb tuning


|------|
|------|
|-12---|
|-12---|
|-10---|
|------|


|---------------------------------------------------|
|---------------------------------------------------|
|-5----8----10----12--------------------------------|
|-5----8----10----12--------------------------------|
|-3----6----8-----10--------------------------------|
|---------------------------------------------------|


|---------------------------------------------------|
|---------------------------------------------------|
|-9----8----7----3----7----8----10------------------|
|-9----8----7----5----7----8----10------------------|
|-7----6----5----5----5----6----8-------------------|
|---------------------------------------------------|


|---------------------------------------------------|
|---------------------------------------------------|
|-5----2----5----2----8----7------------------------|
|-5----2----5----2----8----7------------------------|
|-3----0----3----0----6----5------------------------|
|---------------------------------------------------|
Tap to rate this tab
# A B C D E F G H I J K L M N O P Q R S T U V W X Y Z