Song name
# A B C D E F G H I J K L M N O P Q R S T U V W X Y Z

Smashing Pumpkins - Landslide tab

Standard Tuning and transcribed for those of us who don't have a capo:

E-A-D-G-B-E

Intro & Verse

|----------------------------------------------------|
|-4---4---4----3---3---6-----------------3---3---6---|
|---------------------------5---3---5----------------|
|---5-------5----3-------3----5-------5----3-------3-|
|-6-----6------5-----5------3-----3------5-----5-----|
|----------------------------------------------------|

|----------------------------------------------------|
|-4---4---4----3---3---6-----------------------3-----|
|-----------3------------3--5---3---5---5---3------3-|
|---5------------3------------5-------5---5------3---|
|-6-----6------5-----5------3-----3-----3------5-----|
|----------------------------------------------------|

                                                   x5
|----------------------------------------------------|
|-4---4---4----3---3---6-----------------3---3---6---|
|---------------------------5---3---5----------------|
|---5-------5----3-------3----5-------5----3-------3-|
|-6-----6------5-----5------3-----3------5-----5-----|
|----------------------------------------------------|

|----------------------------------------------------|
|-4---4---4----3---3---6-----------------------------|
|---------------------------5---3---5----5---5---5---|
|---5-------5----3-------3----5-------5----3-------3-|
|-6-----6------5-----5------3-----3------------------|
|----------------------------------------5-----5-----|


CHORUS
|---------------------------------------------------|
|---------------------------------------------------|
|-5---5---5----5---5---5----3-------3---3-------3---|
|---3-------3----3-------3------5-----5-----5-----5-|
|-----------------------------5-----------5---------|
|-6-----6------5-----5------3-----3-----3-----3-----|

|----------------------------------------------------|
|-4---4---4----3---3---6-----------------------------|
|---------------------------5---3---5----5---5---5---|
|---5-------5----3-------3----5-------5----3-------3-|
|-6-----6------5-----5------3-----3------------------|
|----------------------------------------5-----5-----|

|---------------------------------------------------|
|---------------------------------------------------|
|-5---5---5----5---5---5----3-------3---3-------3---|
|---3-------3----3-------3------5-----5-----5-----5-|
|-----------------------------5-----------5---------|
|-6-----6------5-----5------3-----3-----3-----3-----|

|----------------------------------------------------|
|-4---4---4----3---3---6-----------------3---3---6---|
|---------------------------5---3---5----------------|
|---5-------5----3-------3----5-------5----3-------3-|
|-6-----6------5-----5------3-----3------5-----5-----|
|----------------------------------------------------|


SOLO

 Rhythm                                            x6
|----------------------------------------------------|
|-4---4---4----6---6---6-----------------6---6---6---|
|---------------------------5---6---5----------------|
|---5-------5----6-------6----5-------5----6-------6-|
|-6-----6------5-----5------6-----6------5-----5-----|
|----------------------------------------------------|

|----------------------------------------------------|
|-4---4---4----6---6---6-----------------------------|
|---------------------------5---6---5----5---5---5---|
|---5-------5----6-------6----5-------5----6-------6-|
|-6-----6------5-----5------6-----6------------------|
|----------------------------------------5-----5-----|

CHORUS 2
|---------------------------------------------------|
|---------------------------------------------------|
|-5---5---5----5---5---5----3-------3---3-------3---|
|---3-------3----3-------3------5-----5-----5-----5-|
|-----------------------------5-----------5---------|
|-6-----6------5-----5------3-----3-----3-----3-----|

|----------------------------------------------------|
|-4---4---4----3---3---6-----------------------------|
|---------------------------5---3---5----5---5---5---|
|---5-------5----3-------3----5-------5----3-------3-|
|-6-----6------5-----5------3-----3------------------|
|----------------------------------------5-----5-----|

|---------------------------------------------------|
|---------------------------------------------------|
|-5---5---5----5---5---5----3-------3---3-------3---|
|---3-------3----3-------3------5-----5-----5-----5-|
|-----------------------------5-----------5---------|
|-6-----6------5-----5------3-----3-----3-----3-----|

|----------------------------------------------------|
|-4---4---4----3---3---6-----------------3---3---6---|
|---------------------------5---3---5----------------|
|---5-------5----3-------3----5-------5----3-------3-|
|-6-----6------5-----5------3-----3------5-----5-----|
|----------------------------------------------------|


OUTRO
                                                   x8
|----------------------------------------------------|
|-4---4---4----3---3---6-----------------3---3---6---|
|---------------------------5---3---5----------------|
|---5-------5----3-------3----5-------5----3-------3-|
|-6-----6------5-----5------3-----3------5-----5-----|
|----------------------------------------------------|

End on
|--------|
|--4-----|
|--3-----|
|--5-----|
|--6-----|
|--------|
Tap to rate this tab
# A B C D E F G H I J K L M N O P Q R S T U V W X Y Z