Song name
# A B C D E F G H I J K L M N O P Q R S T U V W X Y Z

Smashing Pumpkins - Wound tab

This Is How I Play It, Sounds right. Don't like it? Tough shit.

Intro:

E]----------------------------------|
B]----------------------------------|
G]--2-2-2-2-2-2-2-2-2-2-2-2-2-2-2-2-|
D]--2-2-2-2-2-2-2-2-2-2-2-2-2-2-2-2-|
A]--0-0-0-0-0-0-0-0-0-0-0-0-0-0-0-0-|
E]----------------------------------|

then verse:

E]-------------------0-----0------|
B]-------------------0-----0------|
G]-------------------x--2--2------|     x3
D]----11p9----7p6----6--2--2------|
A]--0-0-----0-0----0-0--0--0------|
E]-------------------x-----x------|

E]--2-2-2-2-2-2-2-0---0-0-0-0-0-0-0----|
B]--2-2-2-2-2-2-2-0---0-0-0-0-0-0-0----|
G]--2-2-2-2-2-2-2-0---0-0-0-0-0-0-0----|
D]--4-4-4-4-4-4-4-0---0-0-0-0-0-0-0----|
A]--4-4-4-4-4-4-4-0---0-0-0-0-0-0-0----|
E]--2-2-2-2-2-2-2-0---0-0-0-0-0-0-0----|

repeat all twice then strum chord A until chorus:

        Bm           Bm
"If you wait, I will wait
  F#m          E
"Taste, I will taste"
        Bm           Bm
"If you love, I will love"
F#m         E               Bm
"Run, I will run… to my last road"

then Bridge:

Dsus                            Dsus           F#m    E
"Last night I turned around and thought I saw myself turning"
Dsus                          Dsus              F#m    E
"Inside the strangest dream of lives unlived and cities burning"
 Dsus        Dsus  F#m       E       Dsus              Dsus
"Awake in my arms, you cry unharmed, our age – all the hours"
 F#m                     E
"while they still devour all"

Then Verse
Then Chorus

Interlude:

Dsus                            Dsus           F#m    E
"Last night I turned around and thought I saw myself turning"
Dsus                          Dsus              F#m    E
"Inside the strangest dream of lives unlived and cities burning"
 Dsus       F#m        E     E     Dsus
"Inside the crushing down I felt a pain"
     F#m      E    E
"the tide was turning"
   Dsus           Dsus
"Destroyed in the wake"
 F#m              E
"the Jealous they wait"
 Dsus               Dsus
"to tear this world down"
 F#m            E
"to spite god above"
 Bm           Bm
"with his own love"
  F#m          E
"with his own love


Chorus:

        Bm
"If you wait…"
         Bm
"If you wait…"
        F#m          E
"If you wait, I will wait"
 Bm            Bm
"Taste, I will taste"
        F#m           E
"If you love, I will love"
 Bm          Bm   F#m   E    Dsus
"Run, I will run… to my last road"

Outro:
E]--2-2-2-2-2-2-2-2--------------------0-|
B]--2-2-2-2-2-2-2-2--------------------2-|
G]--2-2-2-2-2-2-2-2---(drums-----------2-|
D]--4-4-4-4-4-4-4-4--------------------2-|
A]--4-4-4-4-4-4-4-4--------------------0-|
E]--2-2-2-2-2-2-2-2----------------------|

p.s i dont know why the number 8230 shows up in my tab, just igmore it.

~~S.W.E.D~~
Tap to rate this tab
 
# A B C D E F G H I J K L M N O P Q R S T U V W X Y Z