Song name
# A B C D E F G H I J K L M N O P Q R S T U V W X Y Z

Smashing Pumpkins - Stumbleine Live tab

-------------------------------------------------------------------------------
			     Stumbeine Live - Smashing Pumpkins
-------------------------------------------------------------------------------
Tabbed by:qzuiilw	
Email:qzuiilw@hotmail.com

Tuning: 1/2 Step Down

Live from the secret gig at the Sydney Shipping Terminal 98' most of the concert
is the same as the concert they played at 1998-05-14 - Hamburg look at that if you
can't find the song from the secret gig in Sydney.
This has to be one of the most repetitiveness songs the Pumpkins own, Billy plays the 
same chords pretty much through out the whole song so I've put James and Billy's
part together to make it worth while. 

e|-2-------2--------3--------2-------------------------------0---------------|
B|-----3-------3--------3--------3-----3---3---5---3-----3-----3---3---------|
G|---2---2---2---2----2---2----2---2-----0---0---0----0----0-----0-----------|
D|-0-------0--------0--------0---------5------(5)----5-----------------------|
A|---------------------------------------------------------------------------|
E|---------------------------------------------------------------------------|

e|-2-------2--------3--------2----------------------------------5h0----------|
B|-----3-------3--------3--------3--------3---5h3--3--------3-------5h0------|
G|---2---2---2---2----2---2----2---2----0---0----0--------0---0--------------|
D|-0-------0--------0--------0--------5-----------------5--------------------|
A|---------------------------------------------------------------------------|
E|---------------------------------------------------------------------------|
                                     Mordoms In The Bathroom
e|-2-------2--------3--------2---------------------------------0-------------|
B|-----3-------3--------3--------3-------3--3--5h3--0-3----3----3------------|
G|---2---2---2---2----2---2----2---2----0--0--0----0------0--0---0-----------|
D|-0-------0--------0--------0--------5------------------5--------0----------|
A|---------------------------------------------------------------------------|
E|---------------------------------------------------------------------------|
                                     Cause Sally's In The 
e|-2-------2--------3--------2-----------------------------------------------|
B|-----3-------3--------3--------3------3---5h3--3-----3--5h3----------------|
G|---2---2---2---2----2---2----2---2---0--0-----0-0---0-0----5h0-------------|
D|-0-------0--------0--------0--------5--------------5-----------------------|
A|---------------------------------------------------------------------------|
E|---------------------------------------------------------------------------|
                                     And Nobody Nowhere Understands
e|-2-------2--------3--------2-----------------------------------------------|
B|-----3-------3--------3--------3------3---5h3--3-----3--5h3-3--------------|
G|---2---2---2---2----2---2----2---2---0--0-----0-0---0-0----0---------------|
D|-0-------0--------0--------0--------5--------------5-----------------------|
A|---------------------------------------------------------------------------|
E|---------------------------------------------------------------------------|
          About Me
|------0-------0-------------------------------------------------------------|
|-----3-------0--------------------------------------------------------------|
|----0-------0---------------------------------------------------------------|
|---5-------2----------------------------------------------------------------|
|----------------------------------------------------------------------------|
|----------------------------------------------------------------------------|

       And All My Dreams      Lost At     See
e|2-2-2---------3-3-3--3-3---2-2-2-----------------------|
B|3-3-3--2-2-2--3-3-3--3-3---3-3-3--2-2-2-2--------------|
G|2-2-2--2-2-2---------------2-2-2--2-2-2-2--------------|
D|-------2-2-2----------------------2-2-2-2--------------| barely strum
A|--------------2-2-2--2-2-------------------------------|
E|--------------3-3-3--3-3-------------------------------|
                                  
e|-2-------2--------3--------2-----------------------------------------------|
B|-----3-------3--------3--------3------3---5h3--3-----3--5h3----------------|
G|---2---2---2---2----2---2----2---2---0--0-----0-0---0-0----5h0-------------|
D|-0-------0--------0--------0--------5--------------5-----------------------|
A|---------------------------------------------------------------------------|
E|---------------------------------------------------------------------------|
                                      Jack It Up Judy
e|-2-------2--------3--------2-----------------------------------------------|
B|-----3-------3--------3--------3------3---5h3--3-----3--5h3----------------|
G|---2---2---2---2----2---2----2---2---0--0-----0-0---0-0----5h0-------------|
D|-0-------0--------0--------0--------5--------------5-----------------------|
A|---------------------------------------------------------------------------|
E|---------------------------------------------------------------------------|
                                      Mayfield Mistress
e|-2-------2--------3--------2-----------------------------------------------|
B|-----3-------3--------3--------3------3---5h3--3-----3--5h3----------------|
G|---2---2---2---2----2---2----2---2---0--0-----0-0---0-0----5h0-------------|
D|-0-------0--------0--------0--------5--------------5-----------------------|
A|---------------------------------------------------------------------------|
E|---------------------------------------------------------------------------|
                                     My Mis-spend Youth
e|-2-------2--------3--------2-----------------------------------------------|
B|-----3-------3--------3--------3------3---5h3--3-----3--5h3----------------|
G|---2---2---2---2----2---2----2---2---0--0-----0-0---0-0----5h0-------------|
D|-0-------0--------0--------0--------5--------------5-----------------------|
A|---------------------------------------------------------------------------|
E|---------------------------------------------------------------------------|
    
    Till Dawn           the real slaves
e|2-2-2---------3-3-3--3-3---2-2-2---------3-3-3---3-3---|
B|3-3-3--2-2-2--3-3-3--3-3---3-3-3--2-2-2--3-3-3---3-3---|
G|2-2-2--2-2-2---------------2-2-2--2-2-2----------------| barely strum
D|-------2-2-2----------------------2-2-2----------------|
A|--------------2-2-2--2-2-----------------2-2-2---2-2---|
E|--------------3-3-3--3-3-----------------3-3-3---3-3---|

 Pre-Chorus:                   Paid off and staid
e|2-2-2---------3-3-3--3-3-------------------------------|
B|3-3-3--2-2-2--3-3-3--3-3-------------------------------|
G|2-2-2--2-2-2----------------44444444--7777777----------|  
D|-------2-2-2----------------44444444--7777777----------| 
A|--------------2-2-2--2-2----22222222--5555555----------|
E|--------------3-3-3--3-3-------------------------------|

   Chorus:
  And what you never knew
e|---------------------------------------------------------0----------0------|
B|-6-x--5-x--3--3-3--3--3-3---6-x--5-x--3--3-3--3--3-3-----0----------0------|
G|-7-x--6-x--4--4-4--4--4-4---7-x--7-x--5--5-5--5--5-5--4-4-4-4-4--7-7-7-7-7-|
D|-7-x--7-x--5--5-5--5--5-5---7-x--7-x--5--5-5--5--5-5--4-4-4-4-4--7-7-7-7-7-|
A|-5-x--7-x--5--5-5--5--5-5---5-x--7-x--5--5-5--5--5-5--2-2-2-2-2--5-5-5-5-5-|
E|-----------3--3-3--3--3-3-------------3--3-3--3--3-3-----------------------|

e|---------------------------------------------------------0---------0------------|
B|-6-x--5-x--3--3-3--3--3-3---6-x--5-x--3--3-3--3--3-3-----0---------0------------|
G|-7-x--6-x--4--4-4--4--4-4---7-x--7-x--5--5-5--5--5-5--4-4-4-4-4--12-12-12-12-12-|
D|-7-x--7-x--5--5-5--5--5-5---7-x--7-x--5--5-5--5--5-5--4-4-4-4-4--12-12-12-12-12-|
A|-5-x--7-x--5--5-5--5--5-5---5-x--7-x--5--5-5--5--5-5--2-2-2-2-2--10-10-10-10-10-|
E|-----------3--3-3--3--3-3-------------3--3-3--3--3-3----------------------------|

    Jukebox f Up Hanging Round The Drug Store
e|---------------------------------------------------------------------------|
B|---------------------------------------------------------------------------|
G|---------------------------------------------------------------------------|
D|---------------------------------------------------------------------------|
A|---------------------------------------------------------------------------|
E|---------------------------------------------------------------------------|
                                 No Matter What You'll Say
e|-2-------2--------3--------2-----------------------------------------------|
B|-----3-------3--------3--------3------3---5h3--3-----3--5h3----------------|
G|---2---2---2---2----2---2----2---2---0--0-----0-0---0-0----5h0-------------|
D|-0-------0--------0--------0--------5--------------5-----------------------|
A|---------------------------------------------------------------------------|
E|---------------------------------------------------------------------------|
                                     Mummy's In the Manger
e|-2-------2--------3--------2---------------------------5h0-----------------|
B|-----3-------3--------3--------3------3---5h3--3----3-----3----------------|
G|---2---2---2---2----2---2----2---2---0--0----0-----0-0-----0---------------|
D|-0-------0--------0--------0--------5------------5-------------------------|
A|---------------------------------------------------------------------------|
E|---------------------------------------------------------------------------|
                                       She's Got Her Reasons
e|-2-------2--------3--------2-----------------------------------------------|
B|-----3-------3--------3--------3------3---5h3--3-----3--5h3----------------|
G|---2---2---2---2----2---2----2---2---0--0-----0-0---0-0----5h0-------------|
D|-0-------0--------0--------0--------5--------------5-----------------------|
A|---------------------------------------------------------------------------|
E|---------------------------------------------------------------------------|
               Of      Tears
e|-2-2-2--2--2-2----3-3-3--3-----3-3------|
B|-3-3-3--3--3-3----3-3-3--3-----3-3------|
G|-2-2-2--2--2-2--------------------------|barely strum
D|----------------------------------------|
A|------------------2-2-2--2-----2-2------|
E|----------------3-3-3-3--3---3-3-3------|

Pre-Chorus:                   Missed Placed And
e|--2--2-2----------3--3-3----333---------|
B|--3--3-3--2--2-2--3--3-3----333---------|
G|--2--2-2--2--2-2-------------------777--|
D|----------2--2-2-------------------777--|
A|------------------2--2-2----222----555--|
E|------------------3--3-3----333---------|
 
Chorus: What she'll Never Know              Can Never Get To You
e|---------x---------x-------------------------x---------x-------------------|
B|--6--6-6-x--5--5-5-x------------------6--6-6-x--5--5-5-x-------------------|
G|--7--7-7-x--6--6-6-x--4-4--4-4--4-4---7--7-7-x--7--7-7-x--5-5--5-5--5-5----|
D|--7--7-7-x--7--7-7-x--5-5--5-5--5-5---7--7-7-x--7--7-7-x--5-5--5-5--5-5----|
A|--5--5-5-x--7--7-7-x--5-5--5-5--5-5---5--5-5-x--7--7-7-x--5-5--5-5--5-5----|
E|---------x---------x--3-3--3-3--3-3----------x---------x--3-3--3-3--3-3----|
        So Fake It
e|---------------------------------------------------------------------------|
B|---------------------------------------------------------------------------|
G|---7--7-7--7-7-7----12--12-12--12-12-12------------------------------------|
D|---7--7-7--7-7-7----12--12-12--12-12-12------------------------------------|
A|---5--5-5--5-5-5----10--10-10--10-10-10------------------------------------|
E|---------------------------------------------------------------------------|
     I'll Be Your     Stumbeleine 
e|---------x---------x-------------------------x---------x-------------------|
B|--6--6-6-x--5--5-5-x------------------6--6-6-x--5--5-5-x-------------------|
G|--7--7-7-x--6--6-6-x--4-4--4-4--4-4---7--7-7-x--7--7-7-x--5-5--5-5--5-5----|
D|--7--7-7-x--7--7-7-x--5-5--5-5--5-5---7--7-7-x--7--7-7-x--5-5--5-5--5-5----|
A|--5--5-5-x--7--7-7-x--5-5--5-5--5-5---5--5-5-x--7--7-7-x--5-5--5-5--5-5----|
E|---------x---------x--3-3--3-3--3-3----------x---------x--3-3--3-3--3-3----|

e|---------------------------------------------------------------------------|
B|---------------------------------------------------------------------------|
G|--4--4-4--4-4-4----7--7-7--7-7-7-------------------------------------------|
D|--4--4-4--4-4-4----7--7-7--7-7-7-------------------------------------------|
A|--2--2-2--2-2-2----5--5-5--5-5-5-------------------------------------------|
E|---------------------------------------------------------------------------|

e|----------------------5h0-------|
B|--------3--5h3-3---5------5h3---|
G|-------0-0----0---0-0-----------|
D|------5----------5--------------|
A|--------------------------------|
E|--------------------------------|

                                   Come Around Ruby I Could Never 
e|-2---------2--------4--------2------------------------------------|
B|-3---3-3---3--3-3---3---3-3--3------5h3---0----3----5h3---0-------|
G|-2---2-2---2--2-2---2---2-2--2-----0---0-----0-----0----0---0-----|  
D|-0---0-0---0--0-----0---0-0--0----5------(5)------5---------------|x4 on the fourth don't
A|------------------------------------------------------------------| play the plucking part.
E|------------------------------------------------------------------|
  
Telephone
e|---3------|
B|---3------|
G|----------|
D|----------|
A|---2------|
E|---3------|



************************************

| /   slide up
| \   slide down
| h   hammer-on
| p   pull-off
| ~   vibrato
| +   harmonic
| x   Mute note
| b   Bend
| pb  Pre-bend
| br  Bend release
| pbr Pre-bend release
| brb Bend release bend

************************************

I noticed no one has put any tabs from the adore LIVE era up. So hopefully I'll 
get around to adding a lot more. 
If you wish to edit or use it somewhere else please e-mail me any questions e-mail me too !!
Tap to rate this tab
 
# A B C D E F G H I J K L M N O P Q R S T U V W X Y Z