Song name
# A B C D E F G H I J K L M N O P Q R S T U V W X Y Z

Smashing Pumpkins - Once Upon A Time tab

-------------------------------------------------------------------------------
	       Once Apon A Time Live - Smashing Pumpkins
-------------------------------------------------------------------------------
Tabbed by:qzuiilw
Email:qzuiilw

Tuning: 1/2 Step Down

Live from the secret gig at the Sydney Shipping Terminal. Pretty much the same as the
recording.

|-0--00-0--00--0-------3--33-3--33-3---------0--00-0--00--0-------3--33-3--33-3--------|
|-3--33-3--33--3--1-1--3--33-3--33-3---------3--33-3--33--3--1-1--3--33-3--33-3--------|
|-2--22-2--22--2--2-2------------------------2--22-2--22--2--2-2-----------------------|
|-0--00-0--00--0-----------------------------0--00-0--00--0----------------------------|
|-----------------3-3------------------------------------------------------------------|
|----------------------3--33-3--33-3-------------------------3-3--3--33-3--33-3--------|
 Moth           er   I'm  Tired                   I've    Come  To
|-0--00-0--00--0-------3--33-3--33-3---------0--00-0--00--0-------3--33-3--33-3--------|
|-3--33-3--33--3--1-1--3--33-3--33-3---------3--33-3--33--3--1-1--3--33-3--33-3--------|
|-2--22-2--22--2--2-2------------------------2--22-2--22--2--2-2-----------------------|
|-0--00-0--00--0-----------------------------0--00-0--00--0----------------------------|
|-----------------3-3------------------------------------------------------------------|
|----------------------3--33-3--33-3-------------------------3-3--3--33-3--33-3--0-0-0-|
 Time Is Ravaged     On                     And Pleasantly
|-0--00-0--00--0-------3--33-3--33-3---------0--00-0--00--0-------3--33-3--33-3--------|
|-3--33-3--33--3--1-1--3--33-3--33-3---------3--33-3--33--3--1-1--3--33-3--33-3--------|
|-2--22-2--22--2--2-2------------------------2--22-2--22--2--2-2-----------------------|
|-0--00-0--00--0-----------------------------0--00-0--00--0----------------------------|
|-----------------3-3------------------------------------------------------------------|
|----------------------3--33-3--33-3-------------------------3-3--3--33-3--33-3--0-0-0-|
 Fallin      Without            Fallin           Out Of   Sleep
|-------------------3-3-3-3-3---------------------------------------------------|
|-1-1-1-1-1-1-------3-3-3-3-3---1-1-1-1-1-1----------------------2--22-2--2-2---|
|----------------------------------------------------------------2--22-2--2-2---|
|-2-2-2-2-2-2-------------------2-2-2-2-2-2---0--0--0--0--0--0---2--22-2--2-2---|
|-0-0-0-0-0-0-------------------0-0-0-0-0-0---0--0--0--0--0--0---x--xx-x--x-x---|
|-------------------3-3-3-3-3-----------------3--3--3--2--2--2---0--00-0--0-0---|
 To The Last GoodByes  Who       Cares       Why?
|--------------3--33-3-33-3----------------------------------------3--33-3-33-3-|
|2-2-2---------3--33-3-33-3------3-3-3-------------------1-11-1----3--33-3-33-3-|
|2-2-2---------------------------2-2-2-------------------2-22-2-----------------|
|2-2-2---------------------------0-0-0-----2--22-2-22-2-------------------------|
|x-x-x---------2--22-2-22-2----------------2--22-2-22-2--3-33-3---------------3-|
|0-0-0---------3--33-3-33-3----------------0--00-0-00-0------------3--33-3-33-3-|
 Mother I've Tired                             Wasting      My   Life
|-0--00-0--00--0-------3--33-3--33-3---------0--00-0--00--0-------3--33-3--33-3--------|
|-3--33-3--33--3--1-1--3--33-3--33-3---------3--33-3--33--3--1-1--3--33-3--33-3--------|
|-2--22-2--22--2--2-2------------------------2--22-2--22--2--2-2-----------------------|
|-0--00-0--00--0-----------------------------0--00-0--00--0----------------------------|
|-----------------3-3------------------------------------------------------------------|
|----------------------3--33-3--33-3-------------------------3-3--3--33-3--33-3--0-0-0-|
 Cause I Haven't Given Up                     To Make You    So Proud
|-0--00-0--00--0-------3--33-3--33-3---------0--00-0--00--0-------3--33-3--33-3--------|
|-3--33-3--33--3--1-1--3--33-3--33-3---------3--33-3--33--3--1-1--3--33-3--33-3--------|
|-2--22-2--22--2--2-2------------------------2--22-2--22--2--2-2-----------------------|
|-0--00-0--00--0-----------------------------0--00-0--00--0----------------------------|
|-----------------3-3------------------------------------------------------------------|
|----------------------3--33-3--33-3-------------------------3-3--3--33-3--33-3----0---|
Fallen Out OF Sleep             Crawling             Over Knees
|-----------------3-3-3-3-3-----------------------------------------------------|
|-1-1-1-1-1-1-----3-3-3-3-3---1-1-1-1-1-1-------------------------2-2--2-2--2-2-|
|-----------------------------------------------------------------2-2--2-2--2-2-|
|-2-2-2-2-2-2-----------------2-2-2-2-2-2---0-0-0-0-0-0-0-0-0-0---2-2--2-2--2-2-|
|-0-0-0-0-0-0-----------------0-0-0-0-0-0---0-0-0-0-0-0-0-0-0-0---x-x--x-x--x-x-|
|-----------------3-3-3-3-3-----------------3-3-3-3-3-3-2-2-2-2---0-0--0-0--0-0-|
 To The Last GoodBye        Who Cares     Why
|--------------3--33-3-33-3----------------------------------------3--33-3-33-3-|
|2-2-2---------3--33-3-33-3------3-3-3-------------------1-11-1----3--33-3-33-3-|
|2-2-2---------------------------2-2-2-------------------2-22-2-----------------|
|2-2-2---------------------------0-0-0-----2--22-2-22-2-------------------------|
|x-x-x---------2--22-2-22-2----------------2--22-2-22-2--3-33-3---------------3-|
|0-0-0---------3--33-3-33-3----------------0--00-0-00-0------------3--33-3-33-3-|
   Tuesday Come And  Gone
|---------------------------------------------------|
|--3--33--3--33-3--------------------2--22-2--22-2--|
|--4--44--4--44-4--------------------2--22-2--22-2--|
|--4--44--4--44-4----2--22-2--22-2---2--22-2--22-2--|
|--2--22--2--22-2----2--22-2--22-2---0--00-0--00-0--|
|--------------------0--00-0--00-0------------------|
 Restless   Still I Drive
|---------------------------------------------------|
|--3--33--3--33-3--------------------2--22-2--22-2--|
|--4--44--4--44-4--------------------2--22-2--22-2--|
|--4--44--4--44-4----2--22-2--22-2---2--22-2--22-2--|
|--2--22--2--22-2----2--22-2--22-2---0--00-0--00-0--|
|--------------------0--00-0--00-0------------------|
  Try To Leave It    All        Be    Hind
|---------------------------------------------------|
|--3--33--3--33-3--------------------2--22-2--22-2--|
|--4--44--4--44-4--------------------2--22-2--22-2--|
|--4--44--4--44-4----2--22-2--22-2---2--22-2--22-2--|
|--2--22--2--22-2----2--22-2--22-2---0--00-0--00-0--|
|--------------------0--00-0--00-0------------------|
   Fallen    Out Of Sleep          Fallen    With The Leaves
|-----------------------------------------------------------------|
|------------------3--33--3--33-3-----------------3--33--3--33-3--|
|------------------4--44--4--44-4-----------------4--44--4--44-4--|
|--2--22-2--22-2---4--44--4--44-4--2--22-2--22-2--4--44--4--44-4--|
|--2--22-2--22-2---2--22--2--22-2--2--22-2--22-2--2--22--2--22-2--|
|--0--00-0--00-0-------------------0--00-0--00-0------------------|
 Once Apon A Time In My Life            Once Apon A Time In My  Life
|--0--00-0--00--0-----------------------0--00-0--00--0-------------------------|
|--3--33-3--33--3-------2--22-2--22--2--3--33-3--33--3-------------------------|
|--2--22-2--22--2-------2--22-2--22--2--2--22-2--22--2-------------------------|x2
|--0--00-0--00--0-------0--00-0--00--0--0--00-0--00--0-------------------------|
|---------------------------------------------------------------2--22-2-22-2---|
|---------------------------------------------------------------3--33-3-33-3---|
 I Went Faaaaaaaaaaallllllllllling     I Went Faaaaaaaaaaallllllllllling 
|-----------------------------------------------------------------------|
|-3--33-3--33--3---1--11-1--11--1---3--33-3------33--3---1--11-1--11--1-|
|-2--22-2--22--2--------------------2--22-2------22--2------------------|
|-0--00-0--00--0---2--22-2--22--2---0--00-0------00--0---2--22-2--22--2-|
|------------------3--33-3--33--3------------------------3--33-3--33--3-|
|-----------------------------------------------------------------------|

|----0--00-0--00--0-------3--33-3--33-3---------0--00-0--00--0-------3--33-3--33-3-----|
|---3---33-3--33--3--1-1--3--33-3--33-3---------3--33-3--33--3--1-1--3--33-3--33-3-----|
|--2----22-2--22--2--2-2------------------------2--22-2--22--2--2-2--------------------|
|-0-----00-0--00--0-----------------------------0--00-0--00--0-------------------------|
|--------------------3-3---------------------------------------------------------------|
|-------------------------3--33-3--33-3-------------------------3-3--3--33-3--33-3-----|

Mother I Hope     You  Know
|-0--00-0--00--0-------3--33-3--33-3---------0--00-0--00--0-------3--33-3--33-3--------|
|-3--33-3--33--3--1-1--3--33-3--33-3---------3--33-3--33--3--1-1--3--33-3--33-3--------|
|-2--22-2--22--2--2-2------------------------2--22-2--22--2--2-2-----------------------|
|-0--00-0--00--0-----------------------------0--00-0--00--0----------------------------|
|-----------------3-3------------------------------------------------------------------|
|----------------------3--33-3--33-3-------------------------3-3--3--33-3--33-3--------|
  Time Is Ravaged  On
|-0--00-0--00--0-------3--33-3--33-3---------0--00-0--00--0-------3--33-3--33-3--------|
|-3--33-3--33--3--1-1--3--33-3--33-3---------3--33-3--33--3--1-1--3--33-3--33-3--------|
|-2--22-2--22--2--2-2------------------------2--22-2--22--2--2-2-----------------------|
|-0--00-0--00--0-----------------------------0--00-0--00--0----------------------------|
|-----------------3-3------------------------------------------------------------------|
|----------------------3--33-3--33-3-------------------------3-3--3--33-3--33-3--0-0-0-|
 To Wipe A Mothers Tears 
|-0--00-0--00--0-------3--33-3--33-3---------0--00-0--00--0-------3--33-3--33-3--------|
|-3--33-3--33--3--1-1--3--33-3--33-3---------3--33-3--33--3--1-1--3--33-3--33-3--3-----|
|-2--22-2--22--2--2-2------------------------2--22-2--22--2--2-2-----------------2-----|
|-0--00-0--00--0-----------------------------0--00-0--00--0----------------------0-----|
|-----------------3-3------------------------------------------------------------------|
|----------------------3--33-3--33-3-------------------------3-3--3--33-3--33-3--------|


************************************

| /   slide up
| \   slide down
| h   hammer-on
| p   pull-off
| ~   vibrato
| +   harmonic
| x   Mute note
| b   Bend
| pb  Pre-bend
| br  Bend release
| pbr Pre-bend release
| brb Bend release bend

************************************
Please don't edit this tab ! E-mail me with any questions or suggestions.
Tap to rate this tab
 
# A B C D E F G H I J K L M N O P Q R S T U V W X Y Z