Song name
# A B C D E F G H I J K L M N O P Q R S T U V W X Y Z

Smashing Pumpkins - 1979 tab

hey pumpkin smashers. this is my first and probably only tab. i tried looking up tabs
this but none ever seemed to be it. so i figured i might as well put my 2 cents in.

\=slide down
b=bend to...

e|-----------------------------------------------------------------------|
b|-----------------------------------------------------------------------|
g|-----------------------------------------------------------------------|
d|----------------------------------6b7-6-4-2-2-2-4-4-6-6-9-9-9----------|
a|-6-6-6-6-6-6-6-7\2-2-2-2-2-2-2-00-0---0-0-0-0-0-0-0-0-0-0-0-0----------|
E|-0-0-0-0-0-0-0-0-0-0-0-0-0-0-0-----------------------------------------|

e|-----------------------------------------------------------------------|
b|-----------------------------------------------------------------------|
g|-----------------------------------------------------------------------|
d|----------------------------------6b7-6-4-2-2-2-4-4-6-6-9-9-9----------|
a|-6-6-6-6-6-6-6-7\2-2-2-2-2-2-2-00-0---0-0-0-0-0-0-0-0-0-0-0-0----------|
E|-0-0-0-0-0-0-0-0-0-0-0-0-0-0-0-----------------------------------------|

e|-----------------------------------------------------------------------|
b|-----------------------------------------------------------------------|
g|-----------------------------------------------------------------------|
d|----------------------------------6b7-6-4-2-2-2-4-4-6-6-9-9-9----------|
a|-6-6-6-6-6-6-6-7\2-2-2-2-2-2-2-00-0---0-0-0-0-0-0-0-0-0-0-0-0----------|
E|-0-0-0-0-0-0-0-0-0-0-0-0-0-0-0-----------------------------------------|

e|-----------------------------------------------------------------------|
b|-----------------------------------------------------------------------|
g|-----------------------------------------------------------------------|
d|----------------------------------6b7-6-4-2-2-2-4-4-6-6-9-9-9----------|
a|-6-6-6-6-6-6-6-7\2-2-2-2-2-2-2-00-0---0-0-0-0-0-0-0-0-0-0-0-0----------|
E|-0-0-0-0-0-0-0-0-0-0-0-0-0-0-0-----------------------------------------|

after playing it this way for four times before you go to the fifth and so on you play
chords between times four and five

e-0  e-0    i cant tell what the rythem is for the chords. sorry
b-0  b-0
g-9  g-8
d-7  d-9
a-9  a-9
E-0  E-7


well thats all i know. if you have any questions, comments, suggestions or smart
find me on myspace and we can talk. also if you have the rest of the song that would be 
video_nerd@hotmail.com
Tap to rate this tab
 
# A B C D E F G H I J K L M N O P Q R S T U V W X Y Z