Smashing Pumpkins - Pug tab

Tuning: Eb Ab Db Gb Bb Eb

The live version during the Machina era, Billy seems to use the bass notes for the 
instead of the chords. Just try around with heavy thick distortion or light distortion and 
out which is better for you.

INTRO

Synth
|---5---5---5---5---5---5---5---5-|
|-----------------3---6---5-------|
|-0---3---2---5---------------5---|
|---------------------------------|
|---------------------------------|
|---------------------------------|

Guitar - enters 2nd time
|---------------------------------|
|---------------------------------|
|---2---2---2---2---2---2---2---2-|
|-----------------0---3---2-------|
|-----1---0---3---------------3---|
|-3-------------------------------|

Lead
|-------------------------------------|
|-------------------------------------|
|-14b15r14-14b15r14-14b15r14-14b15r14-|
|-------------------------------------|
|-------------------------------------|
|-------------------------------------|


VERSE
                                x2
|---------------------------------|
|---------------------------------|
|---2---2---2---2---2---2---2---2-|
|-----------------0---3---2-------|
|-----1---0---3---------------3---|
|-3-------------------------------|

Lead
|-------------------------------------|
|-------------------------------------|
|-14b15r14-14b15r14-14b15r14-14b15r14-|
|-------------------------------------|
|-------------------------------------|
|-------------------------------------|


CHORUS
|-0----0----1----0--0--|
|-3----1----1----0--1--|
|-0----0----2----0--2--|
|-2----2----3----2--3--|
|-2----3----3----2-----|
|-0---------1----0-----|


|-0----0----1----0--0---0--0---0--0---|
|-3----1----1----0--1---0--1---0--1---|
|-0----0----2----0--2---0--2---0--2---|
|-2----2----3----2--3---2--3---2--3---|
|-2----3----3----2------2------2------|
|-0---------1----0------0------0------|


BRIDGE
|---------------------------------|
|---------------------------------|
|---2---2---2---2---2---2---2---2-|
|-----------------0---3---2-------|
|-----1---0---3---------------3---|
|-3-------------------------------|

Lead
|---------------------------------|
|---------------------------------|
|-/12\10~~--/10\9~~-/9\7~~-/9\2~~-|
|---------------------------------|
|---------------------------------|
|---------------------------------|


VERSE 2
                                x2
|---------------------------------|
|---------------------------------|
|---2---2---2---2---2---2---2---2-|
|-----------------0---3---2-------|
|-----1---0---3---------------3---|
|-3-------------------------------|

Lead
|-------------------------------------|
|-------------------------------------|
|-14b15r14-14b15r14-14b15r14-14b15r14-|
|-------------------------------------|
|-------------------------------------|
|-------------------------------------|


CHORUS 2
|-0----0----1----0--0--|
|-3----1----1----0--1--|
|-0----0----2----0--2--|
|-2----2----3----2--3--|
|-2----3----3----2-----|
|-0---------1----0-----|

|-0----0----1----0--0---0--0---0--0---|
|-3----1----1----0--1---0--1---0--1---|
|-0----0----2----0--2---0--2---0--2---|
|-2----2----3----2--3---2--3---2--3---|
|-2----3----3----2------2------2------|
|-0---------1----0------0------0------|


INTERLUDE

                    x2
|-0----1----0----3----|
|-1----1----3----3----|
|-2----2----2----0----|
|-2----3----0----0----|
|-0----3---------2----|
|------1---------3----|


Lead                       x3
|----------------------------|
|-10-10-10/12~~--12\10-10~~--|
|----------------------------|
|----------------------------|
|----------------------------|
|----------------------------|

                              x1
|-------------------------------|
|-10-10-10/12~~--12/15-15-15~~--|
|-------------------------------|
|-------------------------------|
|-------------------------------|
|-------------------------------|


CHORUS 3
|-0----0----1----0--0--|
|-3----1----1----0--1--|
|-0----0----2----0--2--|
|-2----2----3----2--3--|
|-2----3----3----2-----|
|-0---------1----0-----|

|-0----0----1----0--0---0--0---0--0---|
|-3----1----1----0--1---0--1---0--1---|
|-0----0----2----0--2---0--2---0--2---|
|-2----2----3----2--3---2--3---2--3---|
|-2----3----3----2------2------2------|
|-0---------1----0------0------0------|


VERSE 3/OUTRO

Synth
                                x7
|---5---5---5---5---5---5---5---5-|
|-----------------3---6---5-------|
|-0---3---2---5---------------5---|
|---------------------------------|
|---------------------------------|
|---------------------------------|

Lead
|-------------------------------------|
|-------------------------------------|
|-14b15r14-14b15r14-14b15r14-14b15r14-|
|-------------------------------------|
|-------------------------------------|
|-------------------------------------|

Lead 2
|---------------------------------|
|---------------------------------|
|-/12\10~~--/10\9~~-/9\7~~-/9\2~~-|
|---------------------------------|
|---------------------------------|
|---------------------------------|
Tap to rate this tab
 
# A B C D E F G H I J K L M N O P Q R S T U V W X Y Z