Song name
# A B C D E F G H I J K L M N O P Q R S T U V W X Y Z

Smashing Pumpkins - Set The Ray To Jerry tab

Artist: The Smashing Pumpkins
Song: Set The Ray To Jerry (1993 Demo)
Tabbed by: jaded805

Tuning: Grunge Tuning (Db Ab Db Gb Bb Eb) (This is just how I'm always tuned, so if you 
in Standard, or regular half step, just make the easy adjustments as you learn it!)

Ok so if you haven't heard this version of the song, it's fucking amazing. Waaaaaaay 
than the 1979 B Side. Has the Siamese Dream-era sound. Soft-Loud dynamic, and Chamberlain 
a fucking BEAST on it.

SONG LINK: http://www.youtube.com/watch?v=iNiX6INl4z0


Intro/Verse Riff (Chorus & Flanger/Phaser)
eb|--------------------------------------------------------------------------------|
Bb|5------5-----5-----5-----5-----5-----5------5-----5-----5------5-----5-----5----|
Gb|---5------5-----5-----5-----5-----5-----5------5-----5-----5------5-----5-----5-|
Db|--------------------------------------------------------------------------------|
Ab|--------------------------------------------------------------------------------|
Db|--------------------------------------------------------------------------------|

Chorus Riff (OP-AMP Big Muff Pi or any other thick bassy fuzz pedal...MAX GAIN!!!) 
to song for strum pattern.
eb|--------------------------------------------------------------------------------|
Bb|--------------------------------------------------------------------------------|
Gb|--------------------------------------------------------------------------------|
Db|3/7-7-7-7/10-10-10-10/5-5-5-5-5/8-8-8-8/---------------------------------------=|
Ab|3/7-7-7-7/10-10-10-10/5-5-5-5-5/8-8-8-8/Repeat---------------------------------=|
Db|3/7-7-7-7/10-10-10-10/5-5-5-5-5/8-8-8-8/---------------------------------------=|

Solo
eb|--------------------------------------------------------------------------------|
Bb|--------------------------------------------------------------------------------|
Gb|9~~~~~~~~9-9-7~~~~~~~~7-7-9~~~~/12~~~~^/9-9-7~~~~~~~~amp feedback---------------|
Db|--------------------------------------------------------------------------------|
Ab|--------------------------------------------------------------------------------|
Db|--------------------------------------------------------------------------------|

Riff Over 3rd Chorus
eb|--------------------------------------------------------------------------------|
Bb|5----5-----5-----5-----5-----5-----17------17------17------17------17-----------|
Gb|--5-----5-----5-----5-----5-----5------17------17------17------17------17-------|
Db|--------------------------------------------------------------------------------|
Ab|--------------------------------------------------------------------------------|
Db|--------------------------------------------------------------------------------|


Song Structure:
Intro
Verse
Chorus
Verse riff w/Solo
Verse
Chorus
Amp Feedback break
Chorus w/ Riff Over 3nd Chorus
End

Easy!

LEGEND AND NOTES:
^: Bend string up
/: Slide
~: Vibrato
Tap to rate this tab
 
# A B C D E F G H I J K L M N O P Q R S T U V W X Y Z