Song name
# A B C D E F G H I J K L M N O P Q R S T U V W X Y Z

Smashing Pumpkins - Landslide chords

Highlighted       Show chord diagrams
                             ~~~~~~~~~~~~~~~~~~~~~~~~~~~~~
                                   Smashing Pumpkins
                                       Landslide
                                    Pisces Iscariot
                             ~~~~~~~~~~~~~~~~~~~~~~~~~~~~~

This is a beautiful song, and a very, very nice cover. Fairly simple, too. You can strum this
(which is how I play it) or you can pick it (for that, look at a tab. there are some very nice
ones, I just can't pick so I rarely waste time tabbing)It was originally a FleetWood Mac song
(Written by Stevie Nicks), but it's been covered by everyone from the Dixie Chicks and Reba
Mcentire to, obviously, the Smashing Pumpkins, the later of which we shall be learning.

SO! Without further Delay, we start.


Tuning: Standard (Capo 3)

Chords: (Relative to Capo)
~~~~~~E A D G B e
~~~~C:X 3 2 0 1 0
~~~G6:X 2 0 0 3 0
~~~G6*:X 2 0 0 3 3(Play only if you are strumming)
~~~Am:X 0 2 2 1 0
Am/F#:3 0 2 0 1 0
~~~~G:3 2 0 0 0 3

The G6->G6* movement is played on the last beat of the measure. its just a
hammer on:
1     &     2     &     3     &     4     &    1
G6                                  G6*        Am
Intro:

C G6 G6* Am G6 G6* x2

Verse 1:
C          G6           G6* Am   G6 G6*
 I took my love, I took it down
C            G6             G6*      Am   G6
 I climbed a mountain and I turned around
G6*   C      G6            G6* Am           
G6   G6*
And I saw my reflection in the snow covered hills
 C                 G6     G6* Am G6
ítil the landslide brought it down


Verse2 (Same as the first. No pause)

G6* C             G6       G6* Am    G6
Oh, mirror in the sky, what is love?
G6*     C               G6      G6* Am   G6
Can the child within my heart rise above?
G6*   C                G6    G6* Am      G6
Can I sail through the changing ocean tides?
G6*   C          G6        G6* Am   G6
Can I handle the seasons of my life?
G6*C G6 G6* Am G6 G6*
Ah-hm

C G6 G6* Am Am/F#

chorus: (This may not be right >>)
      G           Am/F#        C
Well, Iíve been afraid of changing cause I've
Am       G           Am  Am/F#
Built my life around you
    G              Am/F#
But time makes you bolder
         C
Even children get older
    Am         G        Am
And Iím getting older, too


Solo: (borrowed >>; Thank you, unregistered >o>)

    These are the actual frets (not in relation to the capo)
|--------------------------------------------------------------------|
|-8h9p8\6-6/8-----------------------8--------------------------------|
|----------------8p7----7h8/10--------7-8-8/10----11r10-8p7-8p7------|
|--------------------10----------/8-----------------------------8-10-|
|--------------------------------------------------------------------|
|--------------------------------------------------------------------|

 -------------------------------------------------------------------|
 -------------------------------------------------------------------|
 -------------------------------------------------------------------|
 -----------------------------------------------------------------7-|
 -8-10-11-10-8-10-8---8b9r8----------------/10-8-10-11-10-11-8-10---|
 ---------------------------11-10-11-10-11--------------------------|

 -------------------------|
 -------------------------|
 -------------------------|
 -8-7----7-----------*15*-| --harmonic
 -----10---10-8-10-8------|
 -------------------------|

Chorus:
      G           Am/F#        C
Well, Iíve been afraid of changing cause I've
Am       G           Am  Am/F#
Built my life around you
    G              Am/F#
But time makes you bolder
         C
Even children get older
    Am         G        Am
And Iím getting older, too
Am      G   Am
I get older, too

verse 3:
C          G6           G6* Am   G6 G6*
 I took my love and I took it down
C            G6             G6*      Am   G6
 I climbed a mountain and I turned around
G6*        C      G6            G6*  Am     
     G6   G6*(hold)
And if you see my reflection in the snow covered hills
    C          G6    G6*  Am  G6
The landslide brought it down

G6* C          G6    G6*  Am  G6
The landslide brought it down

~~~~~~~~~~~~~~

congratulations, You did it. Its a very pretty peice. Tell all your friends! Rate,comment...
...Please? Q~Q

Tabbed by: JoE
E-mail: JosephRH@gmx.com
Tap to rate this tab
 
# A B C D E F G H I J K L M N O P Q R S T U V W X Y Z