Song name
# A B C D E F G H I J K L M N O P Q R S T U V W X Y Z

Smashing Pumpkins - The Rose March tab

Smashing Pumpkins - The Rose March

American Gothic - EP

This is my first tab, please rate!


standard, capo 6

I)
	           (4/4 time, all eighth notes):
e|--------------------------------------------|
B|--------------0-----------0-----------------|
G|----------0-----------0-----------0---------|
D|------2-----------0-------------------------|
A|------------------------------3-------------|
E|--------------------------------------------|

e|--------------------------------------------|
B|--------------------------------------------|
G|--------------0-----------0-------0---------|
D|----------0-----------0---------------------|
A|------0-----------3-------------------------|
E|------------------------------2-------------|

e|--------------------------------------------|
B|----------------------3---------------------|
G|--------------0----------0-----0------------|
D|----------0-----------------0---------------|
A|--------------------------------------------|
E|------0-----------0-------------------------|

e|--------------------------------------------|
B|--------------------------------------------|
G|--------------0-----------0-----------------|
D|----------0-----------0-----------0---------|
A|------------------0-----------3-------------|
E|------2-------------------------------------|
                                  (-----------) omit last time through

each chord symbol below gets one bar 6/8 time:

II)
G - C - Asus2 - D - C - Em - D - D (x3)

III)
C - C - Em - D (x2)
C - C - Em - D - D (x1)

IV)
Em7 - C - D - D (x2)

Play in this order: Ix2 , II , III , II , III , IV , Ix10


Tap to rate this tab
 
# A B C D E F G H I J K L M N O P Q R S T U V W X Y Z