Song name
# A B C D E F G H I J K L M N O P Q R S T U V W X Y Z

Smashing Pumpkins - Freak tab

 Sorry it's just the intro, but here it is anyways.

e----------------------------------------------------------------------------|
b----------------------------3-3/5-------------------------------------------|
g---3-2-3-2-3/5-5-------2-5--------5~/5--10-10--9--9--7--5--7--5--7-9-10~----|
d-------------------3-5------------------------------------------------------|
a----------------------------------------------------------------------------|
E----------------------------------------------------------------------------|

I think that the first five notes might be played like this.

e----------------------------------------------------------------------------|
b----------------------------------------------------------------------------|
g----333-222-333-222--3/5-5--------------------------------------------------|
d----------------------------------------------------------------------------|
a----------------------------------------------------------------------------|
E----------------------------------------------------------------------------|

Try both ways and see which sounds best for yourself.

Chords Intro: C, Am, Em, F  (Capo 2nd fret. Standard tuning on the chords)
       C, Em, F, G6

C                Am Em F

C                        Em                   F                         G6

C                      Am
      Em                  F


C              Am                   Em               F

C              Em                   F                G6


Dm
Oh... They'll pour the salt from your soul (x2)

C              Am       Em                F
La la la la la la la... La la la la la la la la
C              Em       F                 G6
La la la la la la la... La la la la la la la la

C                   Am

    Em                F

C                 Em

         F                    G6

C                   Am

Em                          F


C              Am                   Em               F

C              Em                   F                G6


Dm
Oh... They'll pour the salt from your soul (x2)

F


C              Am       Em                F

C              Em       F                 G6


C              Am                   Em               F

C              Em                   F                G6


C              Am                   Em               F

C              Em                   F                G6             C
Tap to rate this tab
 
# A B C D E F G H I J K L M N O P Q R S T U V W X Y Z