Song name
# A B C D E F G H I J K L M N O P Q R S T U V W X Y Z

Smashing Pumpkins - Spangled tab

Smashing Pumpkins - Spangled

From Teargarden By Kaleidyscope Volume 2: The Solstice Bare

Download for free from www.smashingpumpkins.com

This tab is based on the stunning live acoustic version 
of which you can view here.....www.youtube.com/watch?v=fGxfKppk-H4

I think this tab is very accurate and I trust you'll enjoy it.
It wasn't easy and took me a while but it's worth it! 

~~~~~~~~~~~~~~~~~~~~~~~~~~~~~~~~~~~~~~~~~~~~~~~~~~~~~~~~~~~~~~~~~~~~~~~~~~~~~
Tuning: Standard (EADGBE) No Capo
~~~~~~~~~~~~~~~~~~~~~~~~~~~~~~~~~~~~~~~~~~~~~~~~~~~~~~~~~~~~~~~~~~~~~~~~~~~~~

Take note of the following before proceeding with the song:

* Am(P) = Am with pinky finger on 3rd fret of low E String. (Actually Am7)
* Cadd9(5), Em7(5) & G(5) = Play chord in 5th position (5th Fret).
* Hammer on when you see an asterix next to a chord......
eg. Am* hammer on with index finger, F* hammer on with middle finger. 

~~~~~~~~~~~~~~~~~~~~~~~~~~~~~~~~~~~~~~~~~~~~~~~~~~~~~~~~~~~~~~~~~~~~~~~~~~~~~

Chords Used:       
                                      Cmaj Cmaj    Cadd9 Em7  G
    Am Asus2 Asus4 Am7 G   Em  F  F#11 11   9   Bb  (5)  (5) (5)  C#  C
E|--0----0----0----0---3---0---1---0---0----0---1----6----6---6---4---0--|
B|--1----0----3----1---3---0---1---0---0----0---3----6----6---6---6---1--|
G|--2----2----2----0---0---0---2---2---0----0---3----0----0---0---6---0--|
D|--2----2----2----2---0---2---3---3---3----0---3----5----0---0---6---2--|
A|--0----0----0----0---2---2---3---3---3----3---1----6----5---5---4---3--|
E|-(3)---x----x----x---3---0---1---1---1----0---1----x----x---6---4---3--|
   (P)
~~~~~~~~~~~~~~~~~~~~~~~~~~~~~~~~~~~~~~~~~~~~~~~~~~~~~~~~~~~~~~~~~~~~~~~~~~~~~
 
         (Intro Riff)        
E|-----------------------------|
B|--5---5---4---4---3---3------|
G|----0---0---0---0---0---0----|
D|-----------------------------|
A|--3-------3-------2----------|
E|--------------------------0--| (x2)

     How I love you isn't fair
E|-----------------------------------|
B|--5---5---4---4---3---3---3---3----|
G|----0---0---0---0---0---0---0---0--|
D|-----------------------------------|
A|--3-------3-------2-------1--------|
E|-----------------------------------|

Am*       G       F*          Em
God must want me next to you there

And if I show up to disappear, will you find me half as near?
E|------6------------------|   |---------------------------|
B|--------6-----6-------4--|   |--5---5---3---3---3---3----|
G|----------------0---3----|   |----0---0---0---0---0---0--|
D|----5-------0------------|   |---------------------------|
A|--6-------5-------4------|   |--3-------2-------1--------|
E|-------------------------|   |---------------------------|

Am  Asus2 Asus4 Am7   G     Em
Tan gled   in   your body.....
F   F#11 Cmaj11 Cmaj9   Em         G            
Spangled   by    the   night time stars

Bb          Am   Cadd9(5)  Em7(5)       
Of all the lovers to be a friend
C#              F            Am   Am(P)
I'll come back when you know me.....
Bb         Am      Cadd9(5)  Em7(5)
And it's a sad state of happiness
C#      F           Am          Am(P)
If I confess to my loneliness.....

Am  Asus2 Asus4 Am7   G     Em
Tan gled   in   your body.....
F   F#11 Cmaj11 Cmaj9   Em         G            
Spangled   by    the   night time stars
Am  Asus2 Asus4 Am7   G     Em
Tan gled   in   your body.....
F   F#11 Cmaj11 Cmaj9   Em         G            
Spangled   by    the   night time stars

(Intro Riff x2)
How I've loved you so
It's how I've loved you so

Cadd9(5)          Em7(5)  G(5)
Butterflies don't fly........
Cadd9(5)            Em7(5)  G(5)
Broken hearts don't cry, no no

Am                   F     Em
How I've loved your body, baby
Am                   F             Em
How I've loved your sapphires and rubies
Am                 F          Em
Butterflies don't make it in movies

Cadd9(5)           Em7(5)  F
How I've loved you so.......
Cadd9(5)       Em7(5)  F
God I love you so.......
Cadd9(5)       Em7(5)  F
God I love you so......,

Outro (x1) (Same as Intro Riff)    

End with C

~~~~~~~~~~~~~~~~~~~~~~~~~~~~~~~~~~~~~~~~~~~~~~~~~~~~~~~~~~~~~~~~~~~~~~~~~~~~~

I hope you enjoyed this! Please do rate, thanks. 
Email any comments to wombat77@ihug.co.nz   
Tap to rate this tab
 
# A B C D E F G H I J K L M N O P Q R S T U V W X Y Z