Song name
# A B C D E F G H I J K L M N O P Q R S T U V W X Y Z

Smashing Pumpkins - Soothe tab

----------------------------------------------------------------------------
			     SMASHING PUMPKINS - Soothe
----------------------------------------------------------------------------

Tabbed by:Carrie Davies
Email:quietiamsleeping@yahoo.com

Tuning:Standard


e|-----------------------------------------------------------|
B|-3-----3-------3---------3---------3-------------3---------|
G|---3-----3---3---3---3-3---x-----0---0---0---0---0-0-0-0---|
D|-1---1-1---1---1---1-----------1-------1-------------1-----|
A|-----------------------------3-----3-----------------------|
E|-------------------------------------------3---3-3---------|

e|-----------------------------------------------------------|
B|-3-----3-------3---------3---------3-------------3---------|
G|---3-----3---3---3---3-3-3-0-----0---0---0---0-----0---0---|
D|-1---1-1---1---1---1-----------1-------1-------------1-----|
A|-----------------------------3-----3-----------------------|
E|-------------------------------------------3---3-3---------|

e|-----------------------------------------------------|
B|-3---------3-------3---------3-------------3---------|
G|---3---3-------3-----0-----0-0-0---0---0-----0---0---|
D|-1---1---1-1-1---1-------1-------1-------------1-----|
A|-----------------------3-----3-----------------------|
E|-------------------------------------3---3-3---------|
Hungry hungry again

e|-----------------------------------------------------------------------------------------------|
B|3---------3-------3---------3-----------------3-----------4-------------3-------------4--------|
G|--3---3-------3-----0-----0-0-0---0-----0-----0---0-----0-0---0-----0---0-0---0-----0-0---0----|
D|1---1---1-1-1---1-------1-------1-----0-----0---------0-----0-----0---------0-----0-----0------|
A|----------------------3-----3-----------------------------------------------------------------1|
E|------------------------------------3-----3-----3---3-----3-----3-----3-3-------3-----3-----3--|
Hungry hungry again When will it start to sway When will it start to almost break you

e|-----------------------------------------------------|
B|-3---------3-----------------3-------------3---------|
G|---3---3-------3---3-0-----0---0---0-----0-0-0---0---|
D|-1---1---1-1-1---1-------1---1---1-----1-------1-----|
A|-----------------------3-----3-----------------------|
E|-------------------------------------3-----3---------|
Hungry hungry again

e|-------------------------------------------------------|
B|-3-----------3-----------------3-------------3-----3---|
G|-----3---3-------3---3-------x---0---0-----0---0---0---|
D|-1-1---1---1-1-1---1---1---1---1---1-----1---1---1-----|
A|-------------------------3-----3---3-------------------|
E|---------------------------------------3-----3---------|
Hungry hungry again

e|---------------------------------------------------|
B|-3-------3---------3-----------3-------------3-----|
G|-----3-----3---3-----0-----0-----0-------0---0-0---|
D|-1-1---1-1---1---1-1-----1---1-1---1---1---1-------|
A|-----------------------3-3-----3-------------------|
E|-------------------------------------3-------------|
Ill miss you I donít wish you hurt

e|---------------------------------------------------------------------------|
B|-3-----------3---------3-----------3-----------------3-----------4---------|
G|-----3---3-----3---3-----x-----0---0---0-0-----0-----0---0-----0-0-0---0---|
D|-1-1---1---1-1---1---1-1-----1-------1-------0-----0---------0-------------|
A|---------------------------3-----3-3---------------------------------------|
E|-------------------------------------------3-----3-----3---3-----3---3-----|
But i forgive you I donít wish you away away

e|---------------------------------------1---------------------1-----------------------|
B|-------3-------------4-------------------------4---------------------------4---------|
G|-----0-0-----------0-0-----------0-----0-----0-0-0---0-----0-0---0-------0-0---0-----|
D|---0-----0-------0-----0-------0-----0-------------------------0---0---------0---0---|
A|-----------1-------------1---1-----1-----1---------------1-------------1-------------|
E|-3-----3-----3-3-----3-----3---------------3---3---3---3-------------3-----3---------|
away Itll almost break you almost take you almost break you almost break you up

e|-------1---------------------------------------------------------------------------|
B|---------------------4-------------3---------3-----3-3---------------3-----3---3---|
G|-----0-0---0-------0-0-0---0-----0-0-0-------0-----0-----------------0-------0-----|
D|---------0---0-----------0-----------------------0-------0-------0-------0---------|
A|---1-------------1-------------1---------------1---------1-------1-----1-----------|
E|-3-------------3-----3-------3-----3---3-3-3---3-------3-3-3-3-3-3-3---3-----------|

e|-----------------------------------------------------|
B|---3-------3-----3-3-----3-------3---3-------3-3-----|
G|---0-------0-----0-------0-------0---0-----0-0-------|
D|---0-----------0---------0-------0-------0-----------|
A|---1---1-----1-----------1-------------1-------------|
E|-3-3-3-3-3---3-------3-3-3-3-3-3---3---3---------3---|


PLEASE RATE!
Tap to rate this tab
 
# A B C D E F G H I J K L M N O P Q R S T U V W X Y Z