Song name
# A B C D E F G H I J K L M N O P Q R S T U V W X Y Z

Smashing Pumpkins - Soothe tab

                    
                      S O O T H E 
tuning                                       musinc and lytics by
EADGBE                                               BILLY CORGAN

from the album: Pisces Iscariot 
year: 1994
track: 1

|----------------------------------------------------------------|
|-3-----3-------3---------3-----------3--------------3-----------|
|---3-----3---3---3---3----(3)------0---0---0------0---0---0-----|
|-1---1-1---1---1---1---1---------1-------1------1-------1-------|
|-------------------------------3--------------------------------|
|----------------------------------------------3-----------------|

|----------------------------------------------------------------|
|-3-----3-------3---------3-----------3--------------1-----------|
|---3-----3---3---3---3-----3-------0---0---0------0---O---0-----|
|-1---1-1---1---1---1---1---------1-------1------1-------1-------|
|-------------------------------3--------------------------------|
|----------------------------------------------3-----------------|

  hun_gry    hun_gry ......................................
|---------------------------------------------------------|
|-3----------3------3-----------3---------------3---------|
|-----3---3-------3---3-------0---0---0-------0---0---0---|
|-1-----1----1--1-----------1-------1-------1-------1-----|
|-------------------------3-------------------------------|
|-----------------------------------------3---------------|

|----------------------------------------------------------|
|-3----------3------3-----------3--------------------------|
|-----3---3-------3---3-------0---0---0-------0-----0---0--|
|-1-----1----1--1-----------1-------1-------0-----0---0----|
|-------------------------3--------------------------------|
|-----------------------------------------3-----3----------|

|------------------------------------------------------|
|-------4-------------3-------------4------------------|
|-----0-----0-----0-----0---0-----0---0----------------|
|---0-----0-----0---0-----0-----0-------0--------------|
|------------------------------------------------------|
|-4-----------3---------------4-----------3--6-sustain-|

  hun_gry     hun_gry......................................
|---------------------------------------------------------|
|-3-----------3-------3----------3--------------3---------|
|-----3---3-------3-----3------0---0---0------0---0---0---|
|-1-----1---1-1--1--1--------1-------1------1-------1-----|
|--------------------------3------------------------------|
|-----------------------------------------3---------------|

  hun_gry      hun_gry.....................................
|---------------------------------------------------------|
|-3------------3------------------3--------------3--------|
|------3---3-------3---3--------X---0---0------0---0---0--|
|-1--1---1---1-1-----1---1----1-------1------1-------1----|
|---------------------------3-----------------------------|
|------------------------------------------3--------------|

|------------------------------------------------------------|
|-----------3---------3------------3------------------3------|
|---3---3-----3---3-----3------0-----0---0------0-----0---0--|
|-1---1---1-1---1---1-1------1---1-----1------0-----0---0----|
|--------------------------3---------------------------------|
|-------------------------------------------3-----3----------|

|---------------------------------------------------------|
|-------4-------------3-------------4-------------------6-|
|-----0---0---0-----0---0---0-----0---0---------0-----0---|
|---0-------0-----0-------0-----0-------0-----0-----0-----|
|---------------------------------------------------------|
|-4-------------3-------------4-----------4-6-----6-------|

|--------------------------------------------------------|
|-------4-------------6-------------4-------------6------|
|-----0---0---0-----0---0---------0---0---0-----0---0----|
|---0-------0-----0-------0-----0-------0-----0-------0--|
|--------------------------------------------------------|
|-4-------------6-----------6-4-------------6------------|

                  
|----------------------------------|
|---------4-------------3----------|
|-------0---0---0-----0---0--------|
|-----0-------0-----0-------0------|
|----------------------------------|the softes
|-6-4-------------3-----------3-3--|strokes OK

                        you can figure out the rest 
                        
lyrics 

hungry hungry again 
hungry hungry again
when will star to sway 
when will start to almost brake you 
hungry hungry again 
hungry hungry again
ill miss you 
(but) i dont wish you hurt 
i fogive you 
i dont wish you away away away
itll almost brake you 
almost take you
almost brake you
almost brake you up
Tap to rate this tab
 
# A B C D E F G H I J K L M N O P Q R S T U V W X Y Z