Song name
# A B C D E F G H I J K L M N O P Q R S T U V W X Y Z

Smashing Pumpkins - Landslide tab

================================================================================
                       S M A S H I N G   P U M P K I N S

                                       -

                                L A N D S L I D E
================================================================================


                                PISCES ISCARIOT
                           (c) Virgin Records (1994)
                        http://www.smashingpumpkins.com/


                                     Tuning:
                                  E A D G C D#

                                 Tempo = 83 BPM
                              Time Signature = 4/4



                          -----------------------------
                                 Transcribed by

                                 PADDY MCMULLAN
                           pmtabs (@t) gmail [dot] com

                                   Version 1.0
                                3rd December 2011
                             -----------------------

                             Tablature Symbols Used:


 p         -  Pull-Off
 h         -  Hammer-On
 7b9       -  Bend Note
 9r7       -  Release Bend
 ~~        -  Vibrato
 (/)       -  Legato Slide (Blank space indicates length of slide)
 \         -  Slide Down to/Down From (Blank space indicates length of slide)
 /         -  Slide Up To/Up From (Blank space indicates length of slide)
 ( )       -  Ghost Note/Tied Note/Implied Note



                             -----------------------
                                  Chords Used:
                             -----------------------

                 D#5        A#         Cm7        G7       Cm7/A

          D#||----0----||---(2)---||---------||----2----||---------||
          C ||----3----||----2----||----0----||----2----||----0----||
          G ||----3----||----3----||----3----||----0----||----3----||
          D ||----1----||----0----||----1----||----0----||----1----||
          A ||---------||---------||----3----||---------||----0----||
          E ||---------||---------||---------||---------||---------||


                           A#sus2       F         Gm7

                       ||---------||---------||---------||
                       ||----0----||----0----||----0----||
                       ||----3----||----2----||----0----||
                       ||----3----||----3----||----3----||
                       ||----1----||----0----||----1----||
                       ||---------||---------||----3----||



                             -----------------------
                                   Song Notes:
                             -----------------------


 There are many slight variations throughout the song that are tabbed in full,
  which makes the tab quite long and confusing.  To combat this I've included
 the lyrics and the song time for each part.  A simplified/abridged summary can
      be found at the very bottom of the tab if you just want an overview.


 Both guitars are tuned in an unusual way; the B string is tuned up a half step
        to C and the high-E string is tuned down a half step to D#.



================================================================================
Verse 1: Acoustic Guitar 1 (Fingerstyle)                  [ Time 00:00 - 01:09 ]
================================================================================


* Let notes ring wherever possible *


    [ D#5 ]        [ A# ]            [ Cm7 ]        [ A# ]
||--------------------------2-----|--------------------------2-----|
||--3-----3---3----2----2-------0-|------------0----2----2-------0-|
||--3---3-------3-----3-------0---|--------3-----------3-------0---|
||--1-------1------0------0-------|------1-------1--0------0-------|
||--------------------------------|--3-------3---------------------|
||--------------------------------|--------------------------------|



   [ D#5 ]        [ A# ]            [ Cm7 ]        [ A# ]
|--------0---0-------------2-----|--------------------------2-----|
|--------3---3----2----2-------0-|------------0----2----2-------0-|
|------3-------3-----3-------0---|--------3-----------3-------0---|
|--1-------1------0------0-------|------1-------1--0------0-------|
|--------------------------------|--3-------3---------------------|
|--------------------------------|--------------------------------|



   [ D#5 ]        [ A# ]            [ Cm7 ]        [ A# ]
|--------0---0-------------2-----|--------------------------2-----|
|--------3---3----2----2-------0-|------------0----2----2---2---0-|
|------3-------3-----3-------0---|--------3-----------3-------0---|
|--1-------1------0------0-------|------1-------1--0------0-------|
|--------------------------------|--3-------3---------------------|
|--------------------------------|--------------------------------|
      I  took  my love and took it down



   [ D#5 ]        [ A# ]            [ Cm7 ]        [ A# ]
|--------0---0-------------2-----|--------------------------2-----|
|------------3----2----2-------0-|------------0----2----2---2---0-|
|------3-------3-----3-------0---|--------3-----------3-------0---|
|--1-------1------0------0-------|------1-------1--0------0-------|
|--------------------------------|--3-------3---------------------|
|--------------------------------|--------------------------------|
      I climbed the mountain I turned around                 and I



   [ D#5 ]         [ A# ]            [ Cm7 ]        [ A# ]
|--(0)----0---0-------------2-----|--------------------------2-----|
|---------3---3----2----2-------0-|------------0----2----2---2---0-|
|-------3-------3-----3-------0---|--------3-----------3-------0---|
|---1-------1------0------0-------|------1-------1--0------0-------|
|---------------------------------|--3-------3---------------------|
|---------------------------------|--------------------------------|
    Saw    my   reflection   in the  snow   covered hills   'till the



   [ D#5 ]         [ A# ]            [ Cm7 ]        [ A# ]
|--(0)----0---0-------------2-----|-------------------------------|
|---------3---3----2----2---2---0-|------------0---------0-2----0-|
|-------3-------3-----3-------0---|--------3-------------3-3--0---|
|---1-------1------0------0-------|------1-------1-----1---0------|
|---------------------------------|--3-------3------3-------------|
|---------------------------------|-------------------------------|
    Landslide      brought  it  down



   [ D#5 ]        [ A# ]            [ Cm7 ]        [ A# ]
|--0-----0---0-------------2-----|--------------------------2-----|
|--------3---3----2----2-------0-|------------0----2----2---2---0-|
|------3-------3-----3-------0---|--------3-----------3-------0---|
|--1-------1------0------0-------|------1-------1--0------0-------|
|--------------------------------|--3-------3---------------------|
|--------------------------------|--------------------------------|
   Mirror in the sky    what is love?                     Can the


   [ D#5 ]        [ A# ]            [ Cm7 ]        [ A# ]
|--------0---0-------------2-----|--------------------------2---0-|
|--------3---3----2----2-------0-|------------0----2----2---2-----|
|--3---3-------3-----3-------0---|--------3-----------3-------0---|
|--1-------1------0------0-------|------1-------1--0------0-------|
|--------------------------------|--3-------3---------------------|
|--------------------------------|--------------------------------|
   Child within my heart rise above?                       Can I



   [ D#5 ]        [ A# ]            [ Cm7 ]        [ A# ]
|--------0---0----0--------2-----|--------------------------2---0-|
|--------3---3----2----2-------0-|------------0----2----2---2---0-|
|------3-------3-----3-------0---|--------3-----------3-------0---|
|--1-------1------0------0-------|------1-------1--0------0-------|
|--------------------------------|--3-------3---------------------|
|--------------------------------|--------------------------------|
  Sail   through the changing   ocean         tides?         Can I



   [ D#5 ]        [ A# ]            [ Cm7 ]        [ A# ]
|--------0---0-------------2-----|--------------------------2-----|
|--------3---3----2----2-------0-|------------0----2----2-------0-|
|------3-------3-----3-------0---|--------3-----------3-------0---|
|--1-------1------0------0-------|------1-------1--0------0-------|
|--------------------------------|--3-------3---------------------|
|--------------------------------|--------------------------------|
   Handle  the  seasons         of  my         life?            Ahh



   [ D#5 ]        [ A# ]            [ Cm7 ]        [ G7 ]
|--------0---0-------------2-----|--------------------------2-----|
|--------3---3----2----2---2---0-|------------0----2----2-------0-|
|------3-------3-----3-------0---|--------3-----------0-------0---|
|--1-------1------0------0-------|------1-------1--0------0-------|
|--------------------------------|--3-------3---------------------|
|--------------------------------|--------------------------------|
 ...hhh



   [ D#5 ]        [ A# ]            [ Cm7 ]        [ Cm7/A ]
|--------0---0-------------2-----|---------------------------------||
|--------3---3----2----2-------0-|------------0---------------0----||
|------3-------3-----3-------0---|--------3---------------3--------||
|--1-------1------0------0-------|------1-------1-------1-------0--||
|--------------------------------|--3-------3------0--------0------||
|--------------------------------|---------------------------------||
                                                            Well I've...


================================================================================
Chorus 1: Guitar 1                                        [ Time 01:09 - 01:32 ]
================================================================================


   [ A#sus2 ]     [ F ]             [ Gm7 ]
||-------------------------------|-------------------------------|
||-----------0-------------0-----|--------------------------0----|
||-------3--------2----2---------|-----------0--------------0----|
||-----3-------3-----3-------0-0-|-------3---3---3------3-----0--|
||--1------1------0------0-------|-----1-------1------1----------|
||-------------------------------|--3------3-------3------3------|
  ...      been   afraid    of   changing    'cause   I        built...



   [ D#5 ]       [ A# ]            [ Cm7 ]       [ Cm7/A ]
|--0----0---0-------------2-----|------------------------------|
|--3----3---3----2----2-------0-|-----------0-------------0----|
|--3--3-------3-----3-------0---|-------3---3---------3---3----|
|--1------1------0------0-------|-----1-------1-----1-------0--|
|-------------------------------|--3------3------0------0------|
|-------------------------------|------------------------------|
 ...      my   life    around you



   [ A#sus2 ]    [ F ]             [ Gm7 ]
|-------------------------------|------------------------------|
|-----------0-------------0-----|---------------------0---0----|
|-------3---3----2----2---2---0-|-----------0----0--0-0---0----|
|-----3-3-----3-----3-------0---|-------3---3-------3-----3----|
|--1------1------0------0-------|-----1-----1-1-----1----------|
|-------------------------------|--3------3-3----3------3---3--|
  Time makes you bolder even children   get   older    and I'm...



   [ D#5 ]       [ A# ]            [ Cm7 ]       [ A# ]
|--0----0---0-------------2-----|-------------------------2-----||
|--3----3---3----2----2---2---0-|-----------0----2----2---2---0-||
|--3--3-------3-----3-------0---|-------3---3-------3-------0---||
|--1------1------0------0-------|-----1-------1--0------0-------||
|-------------------------------|--3------3---------------------||
|-------------------------------|-------------------------------||
 ...    getting  older      too



================================================================================
Guitar Solo: Guitars 1 & 2                                [ Time 01:32 - 01:55 ]
================================================================================


---------
Guitar 1:
---------


    [ D#5 ]        [ A# ]            [ Cm7 ]        [ A# ]
||--------0---0-------------2---0-|--------------------------2-----|
||--------3---3----2----2---2---0-|------------0----2----2---2---0-|
||------3-------3-----3-------0---|--------3---3-------3-------0---|
||--1-------1------0------0-------|------1-------1--0------0-------|
||--------------------------------|--3-------3---------------------|
||--------------------------------|--------------------------------|


   [ D#5 ]        [ A# ]            [ Cm7 ]        [ A# ]
|--------0---0-------------2-----|--------------------------------|
|--------3---3----2----2---2---0-|------------0----2----2---2---0-|
|------3-------3-----3-------0---|--------3---3-------3-------0---|
|--1-------1------0------0-------|------1-------1--0------0-------|
|--------------------------------|--3-------3---------------------|
|--------------------------------|--------------------------------|


   [ D#5 ]        [ A# ]            [ Cm7 ]        [ A# ]
|--------0---0-------------2---0-|--------------------------2-----|
|--------3---3----2----2---2---0-|------------0----2----2---2---0-|
|------3-------3-----3-------0---|--------3---3-------3-------0---|
|--1-------1------0------0-------|------1-------1--0------0-------|
|--------------------------------|--3-------3---------------------|
|--------------------------------|--------------------------------|


   [ D#5 ]        [ A# ]            [ Cm7 ]        [ Cm7/A ]
|--------0---0-------------2---0-|---------------------------------||
|--------3---3----2----2---2---0-|------------0---------------0----||
|------3-------3-----3-------0---|--------3---------------3-----3--||
|--1-------1------0------0-------|------1-------1-------1-------0--||
|--------------------------------|--3-------3------0--------0------||
|--------------------------------|---------------------------------||
                                                            Well I've...



---------
Guitar 2:
---------


||-------------------------------|-----------------------------|
||--R- -(7h 8p 7 \5)-(5/7)  ~~---|--(7)~~---R- ----------------|
||--E- --------------------------|----------E- -8p 7------7-(8/|
||--S- --------------------------|----------S- ------8-10------|
||--T- --------------------------|----------T- ----------------|
||-------------------------------|-----------------------------|


|------------------------------|------------------------------|
|-------------------7----------|-----------------R------------|
| 10)~~----------------7~~--8--|--(8 /10)~~------E---(11 r10 )|
|-------------- /8-(8)---------|-----------------S------------|
|------------------------------|-----------------T------------|
|------------------------------|------------------------------|


|--------------------------------------|-----------------------------|
|--------------------------------------|-----------------------------|
|--8p 7-8p 7---------------------------|-----------------------------|
|------------8-10----------------------|-----------------------------|
|------------------8~~-10--11--10-8-10-|--8~~--------(8b9r8)-6--5-6--|
|--------------------------------------|-----------------------------|


|----------------------------|------------------------------||
|----------------------------|------------------------------||
|----------------------------|------------------------------||
|----------------------------|------------------------------||
|--6---5---6-- /10---8---10--|--11---10~~--11--8---10---13--||
|----------------------------|------------------------------||


 // Overlap with Chorus 2                          \\
|----------------------------|---------------------||
|----------------------------|------------R-      -||
|----------------------------|------------E-       ||
|----------------------------|------------S-      -||
|--13---12---10--8---10---8--|--10~~------T-      -||
|----------------------------|---------------------||



================================================================================
Chorus 2: Guitar 1                                        [ Time 01:55 - 02:24 ]
================================================================================


   [ A#sus2 ]     [ F ]           [ Gm7 ]
||------------------------------|------------------------------|
||-----------0-------------0----|------------------------------|
||-------3---3----2----2--------|-----------0-------------0----|
||-----3-------3-----3-------3--|-------3---3---------3-----0--|
||--1------1------0------0------|-----1-------1-----1----------|
||------------------------------|--3------3------3------3------|
  ...      been   afraid   of changing    'cause    I        built...



   [ D#5 ]       [ A# ]            [ Cm7 ]       [ Cm7/A ]
|--0----0---0-------------2-----|------------------------------|
|--3----3---3----2----2---2---0-|-----------0-------------0----|
|--3--3-------3-----3-------0---|-------3---3---------3---3----|
|--1------1------0------0-------|-----1-------1-----1-------0--|
|-------------------------------|--3------3------0------0------|
|-------------------------------|------------------------------|
 ...      my   life    around you



   [ A#sus2 ]    [ F ]            [ Gm7 ]
|-------------------------------|------------------------------|
|-----------0-------------0-----|------------------------------|
|-------3---3----2----2---2---0-|-----------0-------------0----|
|-----3-------3-----3-------0---|-------3---3---------3---3-0--|
|--1------1------0------0-------|-----1-------1-----1----------|
|-------------------------------|--3------3------3------3------|
  Time makes you bolder even children   get   older    and I'm...



   [ D#5 ]       [ A# ]            [ Cm7 ]       [ A# ]
|--0----0---0-------------2-----|-------------------------2-----|
|--3----3---3----2----2---2---0-|-----------0----2----2---2---0-|
|-----3-------3-----3-------0---|-------3---3-------3-------0---|
|--1------1------0------0-------|-----1-------1--0------0-------|
|-------------------------------|--3------3---------------------|
|-------------------------------|-------------------------------|
 ...    getting  older      too                            I'm...



   [ D#5 ]       [ A# ]            [ Cm7 ]       [ A# ]
|--0----0---0----0--------2-----|-------------------------2-----||
|--3----3---3----2----2---2---0-|-----------0----2----2-------0-||
|-----3-------3-----3-------0---|-------3-----------3-------0---||
|--1------1------0------0-------|-----1-------1--0------0-------||
|-------------------------------|--3------3---------------------||
|-------------------------------|-------------------------------||
 ...    getting  older      too                              I...



================================================================================
Verse 2/Outro: Guitar 1                                   [ Time 02:24 - 03:10 ]
================================================================================


    [ D#5 ]        [ A# ]            [ Cm7 ]        [ A# ]
||--------0---0-------------2-----|--------------------------2----|
||--------3---3----2----2---2---0-|------------0----2----2-----0--|
||--3---3-------3-----3-------0---|--------3-----------3-------3--|
||--1-------1------0------0-------|------1-------1--0------0------|
||--------------------------------|--3-------3--------------------|
||--------------------------------|-------------------------------|
  ...       took my love and took it down                      I...



   [ D#5 ]        [ A# ]            [ Cm7 ]       [ A# ]
|--------0---0-------------2-----|--------------------------2-----|
|--------3---3----2----2---2---0-|------------0----2----2---2---0-|
|--3---3-------3-----3-------0---|--------3---3-------3-------0---|
|--1-------1------0------0-------|------1-------1--0------0-------|
|--------------------------------|--3-------3---------------------|
|--------------------------------|--------------------------------|
  ...climbed the mountain I turned around             and if you...



   [ D#5 ]        [ A# ]            [ Cm7 ]
|--0-----0---0-------------2-----|----------------0-----------|
|--3-----3---3----2----2-------0-|--0--------0----0-----------|
|--3---3-------3-----3-------0---|--3-----3-------------------|
|--1-------1------0------0-------|--1---1---------------------|
|--------------------------------|--3----------3--------------|
|--------------------------------|----------------------------|
   see  my   reflection  in the   snow  covered hills    and the...



   [ D#5 ]        [ A# ]            [ Cm7 ]        [ A# ]
|--0-----0---0-------------2-----|--------------------------2-----|
|--3-----3---3----2----2---2---0-|------------0----2----2---2---0-|
|--3---3-------3-----3-------0---|--------3---3-------3-------0---|
|--1-------1------0------0-------|------1-------1--0------0-------|
|--------------------------------|--3-------3---------------------|
|--------------------------------|--------------------------------|
   Landslide    brought   it   down                            the...



   [ D#5 ]        [ A# ]            [ Cm7 ]        [ A# ]
|--0-----0---0-------------2-----|--------------------------2-----|
|--3-----3---3----2----2---2---0-|------------0----2----2---2---0-|
|--3---3-------3-----3-------0---|--------3---3-------3-------0---|
|--1-------1------0------0-------|------1-------1--0------0-------|
|--------------------------------|--3-------3---------------------|
|--------------------------------|--------------------------------|
   Landslide    brought   it   down                         Ahh...



   [ D#5 ]        [ A# ]            [ Cm7 ]         [ A# ]
|--------0---0-------------2-----|---------------------------2-----|
|--------3---3----2----2---2---0-|------------0---0-2----2---2---0-|
|--3---3-------3-----3-------0---|--------3---3--------0-------0---|
|--1-------1------0------0-------|------1-------1---0------0-------|
|--------------------------------|--3-------3----------------------|
|--------------------------------|---------------------------------|
 ...hhh                                                      Ahh...



   [ D#5 ]        [ A# ]            [ Cm7 ]        [ A# ]
|--------0---0-------------2-----|--------------------------2----|
|--3-----3---3----2----2---2---0-|------------0----2----2---2----|
|--3---3-------3-----3-------0---|--------3---3-------3-------0--|
|--1-------1------0------0-------|------1-------1--0------0------|
|--------------------------------|--3-------3--------------------|
|--------------------------------|-------------------------------|
 ...hhh                                                     Ahh...



   [ D#5 ]
|--0----------------|--(0)--------------||
|--3----------------|--(3)--------------||
|-------------------|-------------------||
|--1----------------|--(1)--------------||
|-------------------|-------------------||
|-------------------|-------------------||
 ...hhh



================================================================================
End
================================================================================


Tab Summary:
                    ========
                    Verse 1:       | D#5 | A# | Cm7 | A#    | x 10
                    ========       | D#5 | A# | Cm7 | G7    |
                                   | D#5 | A# | Cm7 | Cm7/A |


                    =========
                    Chorus 1:      | A#sus2 | F  | Gm7 | Gm7   |
                    =========      | D#5    | A# | Cm7 | Cm7/A |
                                   | A#sus2 | F  | Gm7 | Gm7   |
                                   | D#5    | A# | Cm7 | A#    |


                    ============
                    Guitar Solo:   | D#5 | A# | Cm7 | A#    |
                    ============   | D#5 | A# | Cm7 | A#    |
                                   | D#5 | A# | Cm7 | A#    |
                                   | D#5 | A# | Cm7 | Cm7/A |


                    =========
                    Chorus 2:      | A#sus2 | F  | Gm7 | Gm7   |
                    =========      | D#5    | A# | Cm7 | Cm7/A |
                                   | A#sus2 | F  | Gm7 | Gm7   |
                                   | D#5    | A# | Cm7 | A#    |
                                   | D#5    | A# | Cm7 | A#    |



                    ==============
                    Verse 2/Outro: | D#5 | A# | Cm7 | A#      |
                    ============== | D#5 | A# | Cm7 | A#      |
                                   | D#5 | A# | Cm7 | (Hold)  |
                                   | D#5 | A# | Cm7 | A#      |
                                   | D#5 | A# | Cm7 | A#      |
                                   | D#5 | A# | Cm7 | A#      |
                                   | D#5 | A# | Cm7 | A#      |
                                   | D#5 |


                    END
Tap to rate this tab
# A B C D E F G H I J K L M N O P Q R S T U V W X Y Z