Song name
# A B C D E F G H I J K L M N O P Q R S T U V W X Y Z

Smashing Pumpkins - Cherry tab

Tuning: Eb Ab Db Gb Bb Eb


INTRO/VERSE/CHORUS
                        x16
|--------------------------|
|--------------------------|
|--------------------------|
|---4----4--4----2----0--0-|
|-2----2-------0-----------|
|-------------------3------|


CHORUS
                         x5
|--------------------------|
|--------------------------|
|--------------------------|
|---4----4--4----2----0--0-|
|-2----2-------0-----------|
|-------------------3------|


BRIDGE
           x3
|-2----0--0--|
|-3----2--0--|
|-2----2--0--|
|-0----2--2--|
|------0--2--|
|---------0--|

|-2----0----|
|-3----2----|
|-2----2----|
|-0----2----|
|------0----|
|-----------|


VERSE 2
                        x10
|--------------------------|
|--------------------------|
|--------------------------|
|---4----4--4----2----0--0-|
|-2----2-------0-----------|
|-------------------3------|


CHORUS 2
                         x5
|--------------------------|
|--------------------------|
|--------------------------|
|---4----4--4----2----0--0-|
|-2----2-------0-----------|
|-------------------3------|


BRIDGE 2
           x3
|-2----0--0--|
|-3----2--0--|
|-2----2--0--|
|-0----2--2--|
|------0--2--|
|---------0--|

|-2----0----|
|-3----2----|
|-2----2----|
|-0----2----|
|------0----|
|-----------|


OUTRO - Fade out...
|--------------------------|
|--------------------------|
|--------------------------|
|---4----4--4----2----0--0-|
|-2----2-------0-----------|
|-------------------3------|
Tap to rate this tab
# A B C D E F G H I J K L M N O P Q R S T U V W X Y Z