Song name
# A B C D E F G H I J K L M N O P Q R S T U V W X Y Z

Smashing Pumpkins - Landslide tab

Capo : 3rd fret
Tune : E-A-C-G-A-C

Use this Riff for Intro,Verses and Outro

|---------0------------2-------------------------2---|
|-3------------2---2-------(0)-----------2---2-------|
|-----0----------0--------------0---0------0-------0-|
|---0-------0-----------------0-------0--------------|
|-3-----3------2-----2------0-----0------2-----2-----|
|----------------------------------------------------|

All throughout the song,just listen for the rhymes and timings =)


CHORUS

|--------------|
|-0-------0----|
|-----0--------|
|---2-------0--|
|--------------|
|-2-----2------|



|------------------------------------------------------|
|-0-------0----0-------0-------------------------------|
|-----0------------0-----------------------------------|
|---2-------0----2-------0--2---2---4---4-2---2---4---4|
|-----------------------------2-------2-----2-------2--|
|-3-----3------2-----2------0-----0-------0-----0------|

|---------0------------2-----------------|
|-3------------2---2-------(0)-----------|
|-----0----------0--------------0---0----|
|---0-------0-----------------0-------0--|
|-3-----3------2-----2------0-----0------|
|----------------------------------------|

|------------------------------------------------------|
|-0-------0----0-------0-------------------------------|
|-----0------------0-----------------------------------|
|---2-------0----2-------0--2---2---4---4-2---2---4---4|
|-----------------------------2-------2-----2-------2--|
|-3-----3------2-----2------0-----0-------0-----0------|

Repeat Riff on verses


SOLO

 Rhythm                                            x3
|---------0------------2-------------------------2---|
|-3------------2---2-------(0)-----------2---2-------|
|-----0----------0--------------0---0------0-------0-|
|---0-------0-----------------0-------0--------------|
|-3-----3------2-----2------0-----0------2-----2-----|
|----------------------------------------------------|


 Lead - These are the actual frets (not in relation to the capo)
|--------------------------------------------------------------------|
|-8h9p8\6-6/8-----------------------8--------------------------------|
|----------------8p7----7h8/10--------7-8-8/10----11r10-8p7-8p7------|
|--------------------10----------/8-----------------------------8-10-|
|--------------------------------------------------------------------|
|--------------------------------------------------------------------|

 -------------------------------------------------------------------|
 -------------------------------------------------------------------|
 -------------------------------------------------------------------|
 -----------------------------------------------------------------7-|
 -8-10-11-10-8-10-8---8b9r8----------------/10-8-10-11-10-11-8-10---|
 ---------------------------11-10-11-10-11--------------------------|

 -------------------------|
 -------------------------|
 -------------------------|
 -8-7----7-----------*15*-| <-harmonic
 -----10---10-8-10-8------|
 -------------------------|


End on
|--0-----|
|--3-----|
|--0-----|
|--0-----|
|--3-----|
|--------|
Tap to rate this tab
# A B C D E F G H I J K L M N O P Q R S T U V W X Y Z