Song name
# A B C D E F G H I J K L M N O P Q R S T U V W X Y Z

Smashing Pumpkins - Purr Snickety tab

================================================================================
                       S M A S H I N G   P U M P K I N S

                                       -

                            P U R R   S N I C K E T Y
================================================================================


                              CHERUB ROCK [SINGLE]
                           (c) Virgin Records (1993)
                        http://www.smashingpumpkins.com/


                                Standard Tuning
                                  E A D G B E

                                 Tempo = 64 BPM
                              Time Signature = 3/4



                          -----------------------------
                                 Transcribed by

                                 PADDY MCMULLAN
                           pmtabs (@t) gmail [dot] com

                                  Version 1.0
                                17th March 2012
                             -----------------------


                             Tablature Symbols Used:



 ( )       -  Ghost Note/Tied Note/Implied Note
 0h2       -  Hammer-On
 2p0       -  Pull-Off
 3~~       -  Vibrato




                             -----------------------
                                  Chords Used:
                             -----------------------

                 G         Am        Dsus2      Cadd9        C

           ||----3----||--(0/3)--||----0----||----3----||----3----||
           ||----3----||----1----||----3----||----3----||----1----||
           ||----0----||----2----||----2----||----0----||----0----||
           ||----0----||----2----||----0----||----2----||----2----||
           ||----2----||----0----||----0----||----3----||----3----||
           ||----3----||---------||---------||---------||---------||


                            D      F7Madd11+     F7M

                      ||----5----||----0----||----0----||
                      ||----3----||----0----||----1----||
                      ||----2----||----2----||----2----||
                      ||----0----||----3----||----3----||
                      ||---------||----3----||----3----||
                      ||---------||----1----||----1----||
                                               (Thumb)




================================================================================
Acoustic Guitar (Fingerstyle)
================================================================================


 [ Loosely  played with the fingers ]

 [ Let notes ring wherever possible ]

                                                                     ===========
                                                                     Time: 00:00
                                                                     ===========

    [ G ]
    Rake      1                    2
| |--3-----| |-----------3--------|---------------------3--------|
| |---3----| |-----------3--------|------3--------------3--------|
|1|----0---|3|---------0-0--------|------0--------------0--------|
|/|-----0--|/|------0--0-0------0-|------0-----------0-(0h 2p 0)-|
|8|------2-|4|------2--2-2---2--2-|-----------(0h 2)-------------|
| |--------| |--3--------3---3----|--3---3--3--------------------|



 3                    4                       5 [ Dsus2 ]
|------3-----------3-|------------------------|-------------0--0------|
|------3-----------3-|----------3---------(0 h|  3)----3----3--3----0-|
|------------------0-|----------0-----0-------|--2-----2--------------|
|-----------0------0-|------0-----------------|--0--------0------0----|
|--2------2-2--------|-----(2 p 0)-2----3-----|-----------------------|
|--3------3-----3----|--3--(3 p 0)------------|-----------------------|
                                                            All your


6 [ Cadd9 ]              7 [ G ]              8
|-----------------3------|---------3----------|---------------------|
|----------3------3------|---------3----------|---------------------|
|------------------------|------0-----------0-|---------0----0----0-|
|--2-----2----2-----2----|------0--------0--0-|---------0-----------|
|--3----------------3--0-|------2--------2--2-|-----------2----0----|
|------------------------|--3---3----3---3----|--3---3--------------|
   feelings   are  the      same



9 [ F7M ]              10 [ Am ]            11 [ G ]
|----------------------|--------------------|------3-----------3-|
|--1-----0--0----------|--1--0---------0----|------3-----------3-|
|-----------2-----0----|---------2--------0-|------0-----------0-|
|-----------------0----|--2-----------------|---------------0----|
|----------------------|--0----------0------|---------------2----|
|--1---1--------1----0-|--------------------|--3------3-3--------|
   Turn   around         look around you'll see



 12                    13 [ Dsus2 ]              14 [ Cadd9 ]
|----------------------|----------0----0---------|---------------3---------|
|---------3--------(0 h|  3)------3----3--3------|----------3----3--3----3-|
|---------0----0-------|--2-----2----------------|----------0-------0------|
|----------------------|--0----------0------0----|--------2----2-----------|
|------2----2----3-----|-----------------------2-|--3----------3------3----|
|--3---3---------------|-------------------------|-------------------------|
                                And   all   your    troubles   still    re-



15 [ G ]              16                   17 [ F7M ]
|--------------------|---------------------|----------------------|
|---------3----------|---------3----3----0-|--1-----0--0----------|
|------0--0--------0-|---------0-----------|-----------2-----0----|
|------0--0--------0-|------0--------------|----------------------|
|------------------2-|------2----2----0----|----------------------|
|--3--------3---3----|--3---3--------------|--1---1--------1----0-|
   main                                       Settle down take



18 [ Am ]            19 [ G ]              20
|--------------------|------3-------------|---------3-3--3-3--0-|
|--1--0---------0----|------3-----------3-|---------3-3--3-3--1-|
|-----2---2--------0-|------0--0--------0-|---------0-0--0-0--2-|
|--2----------2------|------------------0-|---------0-0--0-0----|
|--0----------0------|--------------------|--2--------2----2----|
|--------------------|--3--------3---3----|--3---3----3----3----|
   what you found to me


                                                                     ===========
                                                                     Time: 00:58
                                                                     ===========


21 [ Am ]            22 [ C ]              23 [ G ]  [ Dsus2 ]  24
|--0--------3---3----|--3------3-3----3--0-|-------------------|---------------|
|--1------1-1---1--1-|--1---1--1-1----1--0-|--3------3---------|--(3)----------|
|--2------2-2---2--0-|--0---0--0-0----0--0-|--0------2---------|--(2)----------|
|--2---2--2-2---2--0-|--2---2--0-0----0--0-|--0------0---------|--(0)----------|
|--0---0--0-0---0----|--3---3--3-3--3-3----|--2------0---------|--(0)----------|
|--------------------|---------------------|--3----------------|---------------|
            I'm your pillar            of  stone   So when the wind calls you to



25 [ Am ]            26 [ C ]             27  [ G ]
|--0--------3---3----|---------3----------|-------3--3-----------|
|--1------1-1---1--1-|---------1----1-(0 h|  3)---3--3-----0--0--|
|--2------2-2---2--0-|--0------0----0--0--|-------0--0-----0-(0 h|
|--2---2--2-2---2----|--2-----------2--0--|----------------0--0--|
|--0---0--------0----|--3-----------3--2--|----------------2-----|
|--------------------|-----------------0--|--3---------3---3-----|
   roam, you cannot    call this house your home



28 [ F7Madd11+ ]      29 [ C ]             30 [ Dsus2 ]
|---------------------|---------3--------0-|-------------0----0----|
|----------0----------|--1------1-1---1--3-|--3~~---3--3-3--3-3----|
|  2)------2-2--------|--0------0-0---0--0-|--2-----2--2-2--2-2--2-|
|--3---------3------0-|--2---2----2---2--0-|--0-----0--0-4--4-4--4-|
|--3---------3------0-|--3--------3------0-|--0-----0----0----0----|
|--1----1----1---1--0-|--------------------|-----------------------|
          Only you

                                                                     ===========
                                                                     Time: 01:31
                                                                     ===========


31 [ D ]                  32 [ Dsus2 ]           33 [ Cadd9 ]
|-------5-5-5-5-5-5-5-5-5-|--------------------0-|------------3----------|
|--3--3-3-3-3-3-3-3-3-3-3-|--3~~------3----------|--3---------3-----3----|
|--2--2-2-2-2-2-2-2-2-2-2-|--2-----2----2---2----|--0-----0---0-----0--0-|
|--0----0-0-0-0-0-0-0-0-0-|--0-----0----0---0----|--2-----2-------2------|
|--0----------------------|--------0----0---0----|--3-----3-------3----0-|
|-------------------------|----------------------|-----------------------|
                                       I've got     reasons   of   my   own


34 [ G ]              35                   36 [ F7M ]
|------3--3----------|---------------------|----------------------|
|------3--3-----3--3-|---------------------|--1-----0-------------|
|------0--0--------0-|---------0----0----0-|--0--------2-----0----|
|------0--0----------|---------------------|-----------------0----|
|------2--2----------|------2----2----0----|----------------------|
|--3---3----3---3----|--3---3--------------|--1---1--------1----0-|
                                         But you might say I'm


37 [ Am ]            38 [ G ]              39
|--------------------|---------------3----|-----3----3-----------|
|--1--0---------0----|------3--------3----|-----3----3----3----0-|
|-----2---2-----0--0-|---------------0----|-----0----0----0------|
|--------------------|-----------0--------|----------------------|
|--0-----------------|-----------2--------|--2---------2----3----|
|-------------0------|--3------3-3------3-|--3----3--------------|
   not that    way  alone



40 [ Dsus2 ]              41 [ Cadd9 ]             42 [ G ]
|---------------0---------|---------------3---------|--------------3----3-|
|----------3-------3----0-|----------3----3--3----3-|------3-------3----3-|
|--2-----2-2--------------|----------0-------0----0-|-----------0-------0-|
|--0-----0----0------0----|--2-----2-----------2----|-----------0-------0-|
|-------------------------|--3----------3-----------|-----------2---------|
|-------------------------|-------------------------|--3------3------3----|
   Ooooo    your       love                    won't   change



 43                   44 [ F7M ]             45 [ Am ]
|---------------------|----------------------|--------------------|
|---------3----3----0-|--1-----0-------------|--1--0---------0----|
|---------0-----------|-----------2-----0----|--2--2---2-----2----|
|------0--------------|----------------------|---------2--------0-|
|------2----2----0----|----------------------|--0----------0------|
|--3---3--------------|--1---1--------1----0-|--------------------|
                    A    million miles and  a  thousand smiles  away



                                                                     ===========
                                                                     Time: 02:18
                                                                     ===========

46 [ G ]              47                    48 [ Dsus2 ]
|---------------3----|-----3----3----3------|--------0----0----0----|
|---------3-----3----|-----3----3-3--3-0--0-|--3-----3----3--3-3--0-|
|---------0-----0--0-|--0--0-0--0-0--0-0--2-|--2-----2--2-2--2-2--0-|
|---------0-0---0--0-|--0----0----0--0-0--0-|--0-----0--0-0--0-0--0-|
|------2----2---2--2-|--2----2----2--2-3----|--0-----0---------0--2-|
|--3---3----3---3----|--3----3--------------|-----------------------|
                                               Ooooo      your    love


49 [ Cadd9 ]              50 [ G ]               51
|----------3----3--3-0----|------3--------------|---------3-----------|
|--3-------3--3-3--3-3----|------3--------------|---------3-----------|
|--0-----0-0--0-0--0-0----|--0---0--0-0--0-0--0-|--0------0----0----0-|
|--2-----2-2--2-2--2-2----|--0---0--0-0--0-0--0-|--0------------------|
|--3-------3--3-3--3-3--0-|--2---2--2-2--2-2--2-|--2--------2----0----|
|-----------------------2-|--3------3----3----3-|--3---3--------------|
                      won't  change                                 A



52 [ F7M ]               53 [ Am ]            54 [ G ]
|------------------------|--------------------|------3---------3----|
|--1-----0---------------|--1--0--------------|------3---------3----|
|-----------2-----(2p0)--|---------2-----0--0-|------0---------0----|
|------------------------|--2----------2------|--------------0------|
|------------------------|--0-----------------|-----------2--2------|
|--1---1--------1------0-|--------------------|--3------3-3-------3-|
   million miles and   a    thousand smiles  away



 55                             56                   57
|-------3--------------3-------|------3-----------3-|------------------3-------|
|-------3--------------3-------|------3-----------3-|------3-----------3-------|
|-------0--------------0-------|------0-----------0-|------------------0-----0-|
|-----0-0-----------0-(0 h2)-0-|--0--------0---0----|------0--------0-(0 h2)-0-|
|------------(0 h2)------------|--2------2-2---2----|-----------0-2----------0-|
|--3-------3-------------------|--3------3-3--------|--3---3--3----------------|


 58
|--3------------||
|--3------------||
|--0------------||
|--0------------||
|--2------------||
|--3------------||

                                                                     ===========
                                                                     Time: 02:53
                                                                     ===========



================================================================================
End
================================================================================
Tap to rate this tab
# A B C D E F G H I J K L M N O P Q R S T U V W X Y Z