Song name
# A B C D E F G H I J K L M N O P Q R S T U V W X Y Z

Smashing Pumpkins - Soma tab

______________"Soma" by Smashing Pumpkins on Siamese Dream___________________

Guitar Effects: /- Slide        >- Fade
                ~- Vibrato      ^- Bend       

Standard Tuning (e,A,D,G,B,E). Lead Guitar Parts Only. This is my first tab but I 
know for a fact that all of this is right, except maybe the solo...

(Intro)
E---------------------------------------------7---7-----7---------------)
B----------------------------------------0------0---0-----0-------------)
G------8---0--------9-----------------0-----0---------0-----------------)
D----9---9--------9---9-------------------------------------------------)x2
A--9---------7----------------------------------------------------------)
e---------------------------------3-------------------------------------)

E-----------------------------------------------------------------------)
B-----------------------------------------------------------------------)
G--8------8-8/9--7-/-6-/-4-/-8-/-2~///8------8-8/9--7-/-6-/-4-/-8-/-2~--)
D----9/11--------------------------------9/11---------------------------)
A-----------------------------------------------------------------------)
e-----------------------------------------------------------------------)

(Verse)
    Nothing left.... to say............And all I've left to do..........
E-----------------------------------------------------------------------)
B-----------------------------------------------------------------------)
G-----------------------------------------------------------------------)
D-9-9-9-----2-2-2-----5-5-5-5-5-5-5---9-9-9-----2-2-2-----5-5-5-5-5-5-5-)
A-9-9-9-----2-2-2-----5-5-5-5-5-5-5---9-9-9-----2-2-2-----5-5-5-5-5-5-5-)
e-7-7-7-----0-0-0-----3-3-3-3-3-3-3---7-7-7-----0-0-0-----3-3-3-3-3-3-3-)
  Is run away from you.. And she led me on.. Down.. With secrets I can't keep
E-----------------------------------------------------------------------)
B-----------------------------------------------------------------------)
G-----------------------------------------------------------------------)
D-9-9-9-----2-2-2-----5-5-5-5-5-5-5---9-9-9-----2-2-2-----5-5-5-5-5-5-5-)
A-9-9-9-----2-2-2-----5-5-5-5-5-5-5---9-9-9-----2-2-2-----5-5-5-5-5-5-5-)
e-7-7-7-----0-0-0-----3-3-3-3-3-3-3---7-7-7-----0-0-0-----3-3-3-3-3-3-3-)
 (Acoustic Solo)
E-10---------10---------------------------------------------------------)
B------10h12-----10-/14\10--7--b7(8)b7b7(8)-----------------------------)
G--0--------------------------------------------------------------------)
D--------------------------------------------b4(5)b4b4(5)-/12--11h12p11-)
A-----------------------------------------------------------------------)
e-----------------------------------------------------------------------)
 (Solo Cont....)               (Outro of Acoustic Half)
E---------------)E------------------------------------------------------)
B---------------)B-------0>>--------------0>>>>>>>----------------------)
G---------------)G----9-----9---9-----9---------------------------------)
D--/14--\9--7---)D--9---9-----9-----9---9-------------------------------)
A---------------)A7---------------7-------------------------------------)
e---------------)e------------------------------------------------------)

(Distortion Half of Song)
      
      "Didn't want to lose you once again"   "Didn't want to be your friend"
E-----------------------------------------------------------------------)
B-----------------------------------------------------------------------)
G-----------------------------------------------------------------------)
D--7-7-7-/-10-10-10-/-5-5-5-/-3-3-3-/-7-7-7-/-10-10-10-/-5-5-5-/-3-3-3--)
A--7-7-7-/-10-10-10-/-5-5-5-/-3-3-3-/-7-7-7-/-10-10-10-/-5-5-5-/-3-3-3--)
e--5-5-5-/-8--8--8--/-3-3-3-/-1-1-1-/-5-5-5-/-8--8--8--/-3-3-3-/-1-1-1--)

     "Fulfilled a promise made of tin..." "And crawled back to you..."
E-----------------------------------------------------------------------)
B-----------------------------------------------------------------------)
G-----------------------------------------------------------------------)
D--7-7-7-/-10-10-10-/-5-5-5-/-3-3-3-/-7-7-7-/-10-10-10-/-5-5-5-/-3-3-3--)
A--7-7-7-/-10-10-10-/-5-5-5-/-3-3-3-/-7-7-7-/-10-10-10-/-5-5-5-/-3-3-3--)
e--5-5-5-/-8--8--8--/-3-3-3-/-1-1-1-/-5-5-5-/-8--8--8--/-3-3-3-/-1-1-1--)
  "I'm all by myself...."         "As I've always felt......"
E-----------------------------------------------------------------------)
B-----------------------------------------------------------------------)
G-----------------------------------------------------------------------)
D-9-9-9---2-2-2---5-5-5-5-5-5-5---9-9-9---2-2-2---5-5-5-5-5-5-5---------)
A-9-9-9---2-2-2---5-5-5-5-5-5-5---9-9-9---2-2-2---5-5-5-5-5-5-5---------)
e-7-7-7---0-0-0---3-3-3-3-3-3-3---7-7-7---0-0-0---3-3-3-3-3-3-3---------)
  "I'll betray myself...."        "To anyone, lost, anyone but you.."
E-----------------------------------------------------------------------)
B-----------------------------------------------------------------------)
G-----------------------------------------------------------------------)
D-9-9-9---2-2-2---5-5-5-5-5-5-5---9-9-9---2-2-2---5-5-5-5-5-5-5---------)
A-9-9-9---2-2-2---5-5-5-5-5-5-5---9-9-9---2-2-2---5-5-5-5-5-5-5---------)
e-7-7-7---0-0-0---3-3-3-3-3-3-3---7-7-7---0-0-0---3-3-3-3-3-3-3---------)
  (Electric Solo)
[-----------------------------------------------------------------------)
[-----------------------------------------------------------------------)
[-8--8--x9-x-11^(11)^^---(11)^^---(11)-----14^-14^--(14)--14p13-13^^----)
[--------------------------------------x-x----------------------------x-)
[-------------------------------------x---------------------------------)
[-----------------------------------------------------------------------)


E-----------------------------------------------------------------------)
B----------------------------------------------------------15^-15-15^-x-)
G-12----12--------------------------12-14^-14-12----12-14^--------------)
D----14--------------------14-12-14--------------14---------------------)
A----------14-12--14-12-14----------------------------------------------)
e-----------------------------------------------------------------------)

E-----------------------------------------------------------------------)
B-15-15^^-x-15-15-12--15-12-15-12-14^--14-12----------------------------)
G---------x-14-14----------------------------14-12----------------------)
D-----------------------------------------------------------------------)
A--------------------------------------------------14-12-10-12-10-10-12-)
e-----------------------------------------------------------------------)

E------14-14^--------------(14)-12-12-(15)-12-(15)--15------------------)
B-----x-0--0--------------------------------------12--------------------)
G------------------------------------------------------16-14-12-16-14-12)
D-------------14-14^-14-14----------------------------------------------)
A-/14-------------------------------------------------------------------)
e-----------------------------------------------------------------------)

E------------------------------------------------------------22^-22-22^-)
B-----------------------------17^-17^-20^-20^-20-20^--^---20/-----------)
G----12-14-12-----------------------------------------------------------)
D-14----------14-12-----------------------------------------------------)
A-------------------14-10-/14-------------------------------------------)
e-----------------------------------------------------------------------)

E-20^-22-22~~-----------------------------------------------------------)
B-----------------------------------------------------------------------)
G---------------15-15-16-14-12----------------7^-7^-(7)-7-7-7-7-7(7)-7-7)
D---------------------------------0-0-----------------------------------)
A------------------------------14-----12^-x-x---------------------------)
e------------15/--------------------------------------------------------)

E--------------------------------------15-------------------------------)
B--------------------------------------------------15-------------------)
G-5-7-5--12^-12^-12^-12^-12^-12^----------16-17-------------------------)
D-------0------------------------12-12----------17----17-14-------/9----)
A--------------------------------------------------------------------12-)
e-----------------------------------------------------------17-15-------)

E-----------------------------------------------------------------------)
B--------------------------------------12-------------------------------)
G----------------------------9-9-9-7-9----7-7-7-7-5-4-------------4/4-2-)
D-10-12-10-9-10--10/----------------------------------5-5-5/7-7-7-----5-)
A--------------------3-3-0-0-7-7-7-5-7----5-5-5-5-3-2-------------------)
e-----------------------------------------------------3-3-3/5-5-5-------)

E----------------------------------------------------------)
B----------------------------------------------------------)
G-2/2-2-7-7-7-7-7--9-/7-7-7-7------------------------------)
D-----4--------------/-------------------------------------)
A-------5-5-5-5-5--7-/5-5-5-5--6/9-7-12-12-12-12--10/9--7/5)
e----------------------------------------------------------)

E----------------------------------------------------------)
B----------------------------------------------------------)
G----------------------------------------------------------)
D----------------------------------------------------------)
A-10-10-10^^----(10)-----------------------------------(10^)
e----------------------------------------------------------)
(Solo End)

(Electric Verse)
 "So let the sadness come again..." "On that you can depend on me, yeah."
E-----------------------------------------------------------------------)
B-----------------------------------------------------------------------)
G-----------------------------------------------------------------------)
D--7-7-7-/-10-10-10-/-5-5-5-/-3-3-3-/-7-7-7-/-10-10-10-/-5-5-5-/-3-3-3--)
A--7-7-7-/-10-10-10-/-5-5-5-/-3-3-3-/-7-7-7-/-10-10-10-/-5-5-5-/-3-3-3--)
e--5-5-5-/-8--8--8--/-3-3-3-/-1-1-1-/-5-5-5-/-8--8--8--/-3-3-3-/-1-1-1--)

"Until the bitter, bitter end of the world, yeah""When God sleeps in bliss"
E-----------------------------------------------------------------------)
B-----------------------------------------------------------------------)
G-----------------------------------------------------------------------)
D--7-7-7-/-10-10-10-/-5-5-5-/-3-3-3-/-7-7-7-/-10-10-10-/-5-5-5-/-3-3-3--)
A--7-7-7-/-10-10-10-/-5-5-5-/-3-3-3-/-7-7-7-/-10-10-10-/-5-5-5-/-3-3-3--)
e--5-5-5-/-8--8--8--/-3-3-3-/-1-1-1-/-5-5-5-/-8--8--8--/-3-3-3-/-1-1-1--)

"I'm all by myself...."         "As I've always felt......"
E-----------------------------------------------------------------------)
B-----------------------------------------------------------------------)
G-----------------------------------------------------------------------)
D-9-9-9---2-2-2---5-5-5-5-5-5-5---9-9-9---2-2-2---5-5-5-5-5-5-5---------)
A-9-9-9---2-2-2---5-5-5-5-5-5-5---9-9-9---2-2-2---5-5-5-5-5-5-5---------)
e-7-7-7---0-0-0---3-3-3-3-3-3-3---7-7-7---0-0-0---3-3-3-3-3-3-3---------)
  "And I'll betray myself...."        "To anyone..............."
E-----------------------------------------------------------------------)
B-----------------------------------------------------------------------)
G-----------------------------------------------------------------------)
D-9-9-9---2-2-2---5-5-5-5-5-5-5---9-9-9---2-2-2---5-5-5-5-5-5-5---------)
A-9-9-9---2-2-2---5-5-5-5-5-5-5---9-9-9---2-2-2---5-5-5-5-5-5-5---------)
e-7-7-7---0-0-0---3-3-3-3-3-3-3---7-7-7---0-0-0---3-3-3-3-3-3-3---------)

(Clean) (Acoustic)
E---------------------------------------------7---7-----7---------------)
B----------------------------------------0------0---0-----0-------------)
G------8---0--------9-----------------0-----0---------0-----------------)
D----9---9--------9---9-------------------------------------------------)3x's
A--9---------7----------------------------------------------------------)
e---------------------------------3-------------------------------------)
                         (Hold then end)
E-----------------------------------------------------------------------)
B-----------------------------------------------------------------------)
G------------------------7>>>>>>>---------------------------------------)
D------------------------7>>>>>>>---------------------------------------)
A------------------------5>>>>>>>---------------------------------------)
e-----------------------------------------------------------------------)

Any problems just e-mail me at lwarren96@ymail.com
(I just got the electric solo from a tab book by the way)
Tap to rate this tab
 
# A B C D E F G H I J K L M N O P Q R S T U V W X Y Z