Song name
# A B C D E F G H I J K L M N O P Q R S T U V W X Y Z

Smashing Pumpkins - Jupiters Lament tab

INTRO
G G G G


VERSE
G G G G
C C G G


CHORUS
Em C G D
G C G 
*G F#/D Em*
D D


Play the G F#/D Em like this
|-3--------|
|-3--------|
|-0--------|
|-0--------|
|-2--------|
|-3--2--0--|


VERSE 2
G G G G
C C G G


CHORUS 2
Em C G D
G C G 
*G F#/D Em*
D D


Play the G F#/D Em like this
|-3--------|
|-3--------|
|-0--------|
|-0--------|
|-2--------|
|-3--2--0--|


BRIDGE
C C G G
C C D D
C C G G
C C D D


OUTRO
G C G D 
Em C G D 
Em C D D


End on G


Chords:
  C  D  Em G
|-0--2--0--3--|
|-1--3--0--3--|
|-0--2--0--0--|
|-2--0--2--0--|
|-3-----2--2--|
|-------0--3--|
Tap to rate this tab
# A B C D E F G H I J K L M N O P Q R S T U V W X Y Z