Song name
# A B C D E F G H I J K L M N O P Q R S T U V W X Y Z

Smashing Pumpkins - Vanilla tab

INTRO

 Guitar 1
|-----------------------|
|-----------------------|
|-2---0---------------0-|
|---------2---0---0h2---|
|-----------------------|
|-3-3---3---3---3-------|

 Guitar 2
|-5---3---------------3-|
|---------5---3---3h5---|
|---0---0---0---0-------|
|-----------------------|
|-----------------------|
|-----------------------|


VERSE
|-----------------------|
|-----------------------|
|-2---0---------------0-|
|---------2---0---0h2---|
|-----------------------|
|-3-3---3---3---3-------|


CHORUS
|-0--------0----3-----0----0----0----3----0-3----|
|-1--------1----3-----0----1----1----3----1-3----|
|-2--------0----0--0--0----2----0----0----0-0----|
|-2--------2----0--0--2----2----2----0----2-0----|
|-0--------3----2--X--2----0----3----2----3-2----|
|---------------3--2--0--------------3------3----|


VERSE 2 - Just strum on this instead

|-3--------|
|-3--------|
|-0--------|
|-0--------|
|-2--------|
|-3--------|


CHORUS 2 - Same


BRIDGE - Play intro


VERSE 3
                      x2
|-----------------------|
|-----------------------|
|-2---0---------------0-|
|---------2---0---0h2---|
|-----------------------|
|-3-3---3---3---3-------|

|-0--------3--------|
|-1--------3--------|
|-2--------0--------|
|-2--------0--------|
|-0--------2--------|
|----------3--------|

|-3--------|
|-3--------|
|-0--------|
|-0--------|
|-2--------|
|-3--------|

|-0--------3--------|
|-1--------3--------|
|-2--------0--------|
|-2--------0--------|
|-0--------2--------|
|----------3--------|


CHORUS 3

|-0----0----3----0-3----|
|-1----1----3----1-3----|
|-2----0----0----0-0----|
|-2----2----0----2-0----|
|-0----3----2----3-2----|
|-----------3------3----|

|-0--------0----3-----0----0----0----3----0-3----|
|-1--------1----3-----0----1----1----3----1-3----|
|-2--------0----0--0--0----2----0----0----0-0----|
|-2--------2----0--0--2----2----2----0----2-0----|
|-0--------3----2--X--2----0----3----2----3-2----|
|---------------3--2--0--------------3------3----|


VERSE 4 - Same as verse 2


CHORUS 4/OUTRO

|-0--------0----3-----0----0----0----3----0-3----|
|-1--------1----3-----0----1----1----3----1-3----|
|-2--------0----0--0--0----2----0----0----0-0----|
|-2--------2----0--0--2----2----2----0----2-0----|
|-0--------3----2--X--2----0----3----2----3-2----|
|---------------3--2--0--------------3------3----|

|-0--------0----3-----0----0----0--------2--------3----0-3----|
|-1--------1----3-----0----1----1--------3--------3----1-3----|
|-2--------0----0--0--0----2----0--------2--------0----0-0----|
|-2--------2----0--0--2----2----2--------0--------0----2-0----|
|-0--------3----2--X--2----0----3-----------------2----3-2----|
|---------------3--2--0---------------------------
Tap to rate this tab
 
# A B C D E F G H I J K L M N O P Q R S T U V W X Y Z