Song name
# A B C D E F G H I J K L M N O P Q R S T U V W X Y Z

Smashing Pumpkins - Ugly tab

Tuning: Eb Ab Db Gb Bb Eb

*Palm mute throughout the entire song*


INTRO
|---------------------------------|
|---------------------------------|
|---------------------------------|
|-2-2-2-2-2-2-2-2-2-2-2-2-2-2-2-2-|
|-2-2-2-2-2-2-2-2-2-2-2-2-2-2-2-2-|
|-0-0-0-0-0-0-0-0-0-0-0-0-0-0-0-0-|


VERSE
                                x4
|---------------------------------|
|---------------------------------|
|---------------5-5-5-5-5-5-5-5-5-|
|-2-2-2-2-5-5-5-5-5-5-5-5-5-5-5-5-|
|-2-2-2-2-5-5-5-3-3-3-3-3-3-3-3-3-|
|-0-0-0-0-3-3-3-------------------|


CHORUS
|-------------------------------------------------------------------|
|-------------------------------------------------------------------|
|-----------------------------------5-5-5-5-5-5-5-2-2-2-2-2-2-2-2-2-|
|-2-2-2-2-2-2-2-5-5-5-5-5-5-5-5-5-5-5-5-5-5-5-5-5-2-2-2-2-2-2-2-2-2-|
|-2-2-2-2-2-2-2-5-5-5-5-5-5-5-5-5-5-3-3-3-3-3-3-3-0-0-0-0-0-0-0-0-0-|
|-0-0-0-0-0-0-0-3-3-3-3-3-3-3-3-3-3---------------------------------|

                                x3
|---------------------------------|
|---------------------------------|
|---------------5-5-5-5-5-5-2-2-2-|
|-2-2-2-2-5-5-5-5-5-5-5-5-5-2-2-2-|
|-2-2-2-2-5-5-5-3-3-3-3-3-3-0-0-0-|
|-0-0-0-0-3-3-3-------------------|

|---------------------------------|
|---------------------------------|
|---------------5-5-5-5-5-5-5-5-5-|
|-2-2-2-2-5-5-5-5-5-5-5-5-5-5-5-5-|
|-2-2-2-2-5-5-5-3-3-3-3-3-3-3-3-3-|
|-0-0-0-0-3-3-3-------------------|


VERSE 2
|---------------------------------|
|---------------------------------|
|---------------5-5-5-5-5-5-5-5-5-|
|-2-2-2-2-5-5-5-5-5-5-5-5-5-5-5-5-|
|-2-2-2-2-5-5-5-3-3-3-3-3-3-3-3-3-|
|-0-0-0-0-3-3-3-------------------|

|---------------------------------|
|---------------------------------|
|---------------5-5-5-5-5-2-2-2-2-|
|-2-2-2-2-5-5-5-5-5-5-5-5-2-2-2-2-|
|-2-2-2-2-5-5-5-3-3-3-3-3-0-0-0-0-|
|-0-0-0-0-3-3-3-------------------|

|---------------------------------|
|---------------------------------|
|---------------5-5-5-5-5-5-5-5-5-|
|-2-2-2-2-5-5-5-5-5-5-5-5-5-5-5-5-|
|-2-2-2-2-5-5-5-3-3-3-3-3-3-3-3-3-|
|-0-0-0-0-3-3-3-------------------|

|---------------------------------|
|---------------------------------|
|---------------5-5-5-5-5-2-2-2-2-|
|-2-2-2-2-5-5-5-5-5-5-5-5-2-2-2-2-|
|-2-2-2-2-5-5-5-3-3-3-3-3-0-0-0-0-|
|-0-0-0-0-3-3-3-------------------|


CHORUS 2
|-------------------------------------------------------------------|
|-------------------------------------------------------------------|
|-----------------------------------5-5-5-5-5-5-5-2-2-2-2-2-2-2-2-2-|
|-2-2-2-2-2-2-2-5-5-5-5-5-5-5-5-5-5-5-5-5-5-5-5-5-2-2-2-2-2-2-2-2-2-|
|-2-2-2-2-2-2-2-5-5-5-5-5-5-5-5-5-5-3-3-3-3-3-3-3-0-0-0-0-0-0-0-0-0-|
|-0-0-0-0-0-0-0-3-3-3-3-3-3-3-3-3-3---------------------------------|

                                x3
|---------------------------------|
|---------------------------------|
|---------------5-5-5-5-5-5-2-2-2-|
|-2-2-2-2-5-5-5-5-5-5-5-5-5-2-2-2-|
|-2-2-2-2-5-5-5-3-3-3-3-3-3-0-0-0-|
|-0-0-0-0-3-3-3-------------------|

|---------------------------------|
|---------------------------------|
|---------------5-5-5-5-5-5-5-5-5-|
|-2-2-2-2-5-5-5-5-5-5-5-5-5-5-5-5-|
|-2-2-2-2-5-5-5-3-3-3-3-3-3-3-3-3-|
|-0-0-0-0-3-3-3-------------------|


INTERLUDE                       x9
|---------------------------------|
|---------------------------------|
|-7-7-7-7-7-7-7-5-5-5-5-----------|
|-7-7-7-7-7-7-7-5-5-5-5-2-2-2-2-2-|
|-5-5-5-5-5-5-5-3-3-3-3-2-2-2-2-2-|
|-----------------------0-0-0-0-0-|


VERSE 3
                                x3
|---------------------------------|
|---------------------------------|
|---------------5-5-5-5-5-5-5-5-5-|
|-2-2-2-2-5-5-5-5-5-5-5-5-5-5-5-5-|
|-2-2-2-2-5-5-5-3-3-3-3-3-3-3-3-3-|
|-0-0-0-0-3-3-3-------------------|

|---------------------------------|
|---------------------------------|
|---------------5-5-5-5-5-2-2-2-2-|
|-2-2-2-2-5-5-5-5-5-5-5-5-2-2-2-2-|
|-2-2-2-2-5-5-5-3-3-3-3-3-0-0-0-0-|
|-0-0-0-0-3-3-3-------------------|

|---------------------------------|
|---------------------------------|
|---------------5-5-5-5-5-5-5-5-5-|
|-2-2-2-2-5-5-5-5-5-5-5-5-5-5-5-5-|
|-2-2-2-2-5-5-5-3-3-3-3-3-3-3-3-3-|
|-0-0-0-0-3-3-3-------------------|

|---------------------------------|
|---------------------------------|
|---------------5-5-5-5-5-2-2-2-2-|
|-2-2-2-2-5-5-5-5-5-5-5-5-2-2-2-2-|
|-2-2-2-2-5-5-5-3-3-3-3-3-0-0-0-0-|
|-0-0-0-0-3-3-3-------------------|

                                x2
|---------------------------------|
|---------------------------------|
|---------------5-5-5-5-5-5-5-5-5-|
|-2-2-2-2-5-5-5-5-5-5-5-5-5-5-5-5-|
|-2-2-2-2-5-5-5-3-3-3-3-3-3-3-3-3-|
|-0-0-0-0-3-3-3-------------------|
Tap to rate this tab
# A B C D E F G H I J K L M N O P Q R S T U V W X Y Z