Song name
# A B C D E F G H I J K L M N O P Q R S T U V W X Y Z

Smashing Pumpkins - Transformer tab

INTRO/VERSE - Guitars tacet 

 Bass                                               x8
|-----------------------------------------------------|
|-----------------------------------------------------|
|-----------------------------------------------------|
|-2-2-2-1-0----0-2--2-2-1-0----0-2--2-2-1-0----0-2----|


CHORUS
                                x5
|---------------------------------|
|---------------------------------|
|-2-2-2-2-4-4-4-4-----------------|
|-2-2-2-2-4-4-4-4-4-4-4-4-4-4-3-2-|
|-0-0-0-0-2-2-2-2-4-4-4-4-4-4-3-2-|
|-----------------2-2-2-2-2-2-1-0-|

|------|
|------|
|------|
|-2----|
|-2----|
|-0----|


VERSE 2 - Guitars tacet


BRIDGE
|-----------------------------------------------------------------|
|-----------------------------------------------------------------|
|-----------------4-4-4-4-4-4-4-4---------------------------------|
|-2-2-2-2-2-2-2-2-4-4-4-4-4-4-4-4-4-4-4-4-4-4-4-4-4-4-4-4-4-4-4-4-|
|-2-2-2-2-2-2-2-2-2-2-2-2-2-2-2-2-4-4-4-4-4-4-4-4-4-4-4-4-4-4-4-4-|
|-0-0-0-0-0-0-0-0-----------------2-2-2-2-2-2-2-2-2-2-2-2-2-2-2-2-|


CHORUS 2
                                x5
|---------------------------------|
|---------------------------------|
|-2-2-2-2-4-4-4-4-----------------|
|-2-2-2-2-4-4-4-4-4-4-4-4-4-4-3-2-|
|-0-0-0-0-2-2-2-2-4-4-4-4-4-4-3-2-|
|-----------------2-2-2-2-2-2-1-0-|

|-----------|
|-----------|
|-------4---|
|-2-----4---|
|-2-----2---|
|-0---------|


VERSE 3/OUTRO - Guitars tacet
Tap to rate this tab
# A B C D E F G H I J K L M N O P Q R S T U V W X Y Z