Song name
# A B C D E F G H I J K L M N O P Q R S T U V W X Y Z

Smashing Pumpkins - God tab

VERSE - Bassline
|---------------------------------|
|---------------------------------|
|---------------------------------|
|-2-2-2-0-0-0-0-0-5-5-5-0-0-0-0-0-|

Guitars play this riff
|-----------|
|-----------|
|-7-7-------|
|-7-7--7-7--|
|-5-5--7-7--|
|------5-5--|


PRECHORUS
                    x3
|---------------------|
|---------------------|
|------------7-7------|
|-2--2-4-4---7-7--7-7-|
|-2--2-4-4---5-5--7-7-|
|-0--0-2-2--------5-5-|


CHORUS
                         x6
|--------------------------|
|--------------------------|
|--------------2--2-4--4-4-|
|-4--4-2--2-2--2--2-4--4-4-|
|-4--4-2--2-2--0--0-2--2-2-|
|-2--2-0--0-0--------------|

|-----------|
|-----------|
|-7-7-------|
|-7-7--7-7--|
|-5-5--7-7--|
|------5-5--|


VERSE 2 - Guitars tacet

Play this just before prechorus 2
|-----------|
|-----------|
|-7-7-------|
|-7-7--7-7--|
|-5-5--7-7--|
|------5-5--|


PRECHORUS 2
                    x3
|---------------------|
|---------------------|
|------------7-7------|
|-2--2-4-4---7-7--7-7-|
|-2--2-4-4---5-5--7-7-|
|-0--0-2-2--------5-5-|


CHORUS 2
                         x6
|--------------------------|
|--------------------------|
|--------------2--2-4--4-4-|
|-4--4-2--2-2--2--2-4--4-4-|
|-4--4-2--2-2--0--0-2--2-2-|
|-2--2-0--0-0--------------|


INTERLUDE

 Guitar 1         x4
|-------------------|
|-------------------|
|-7--7----7--7------|
|-7--7----7--7------|
|-5--5----5--5------|
|-------------------|
|Guitar 2         x3
|-------------------|
|-------------------|
|---------11~~~~----|
|-------------------|
|-------------------|
|-------------------|

 Guitar 2         x1
|-------------------|
|-------------------|
|---------11gb~~~~--|
|-------------------|
|-------------------|
|-------------------|


BRIDGE
                    x4
|---------------------|
|---------------------|
|-----9-----7---------|
|-2---9-----7--7-7----|
|-2---7-----5--0-7----|
|-0--------------5----|


CHORUS 3
                         x4
|--------------------------|
|--------------------------|
|--------------2--2-4--4-4-|
|-4--4-2--2-2--2--2-4--4-4-|
|-4--4-2--2-2--0--0-2--2-2-|
|-2--2-0--0-0--------------|


OUTRO
                         x5
|--------------------------|
|--------------------------|
|--------------2--2-4--4-4-|
|-4--3-2--2-2--2--2-4--4-4-|
|-4--3-2--2-2--0--0-2--2-2-|
|-2--1-0--0-0--------------|
Tap to rate this tab
 
# A B C D E F G H I J K L M N O P Q R S T U V W X Y Z