Song name
# A B C D E F G H I J K L M N O P Q R S T U V W X Y Z

Smashing Pumpkins - Mouths Of Babes tab

INTRO                                 x3
|---------------------------------------|
|---------------------------------------|
|-----------------------------2-2-4-4/6-|
|-----------7-7-7-6-----4-4-4-2-2-4-4/6-|
|-4p2-------7-7-7-6-----4-4-4-0-0-2-2/4-|
|-----4p2p0-5-5-5-4-0h2-2-2-2-----------|

|---------------------------------------|
|---------------------------------------|
|-----------------------------2-2-------|
|-----------7-7-7-6-----4-4-4-2-2-------|
|-4p2-------7-7-7-6-----4-4-4-0-0-X\\\\-|
|-----4p2p0-5-5-5-4-0h2-2-2-2-----X\\\\-|


VERSE - Play the following 2x

|-------------------------------------|
|-------------------------------------|
|-4/6-6-6---------------2-2-2---4-4-4-|
|-4/6-6-6-2-2-2-2-4/6-6-2-2-2---4-4-4-|
|-2/4-4-4-2-2-2-2-4/6-6-0-0-0-0h2-2-2-|
|---------0-0-0-0-2/4-4---------------|

|-----------------------------------|
|-----------------------------------|
|-4/6-6-6---------------2-2-2-------|
|-4/6-6-6-2-2-2-2-4/6-6-2-2-2-------|
|-2/4-4-4-2-2-2-2-4/6-6-0-0-0-------|
|---------0-0-0-0-2/4-4-------2~~~~-|


CHORUS
                      x3
|-----------------------|
|-----------------------|
|-6---------------------|
|-6-6-7-7-6-7/9-9-4-4-2-|
|-4-6-7-7-6-7/9-9-4-4-2-|
|-4-4-5-5-4-5/7-7-2-2-0-|

|---------------------------------------|
|---------------------------------------|
|---------------------------------------|
|-4/6-6-6-6-6-6-6-6-6/7-7-7-7-7/9-9-9-9-|
|-4/6-6-6-6-6-6-6-6-6/7-7-7-7-7/9-9-9-9-|
|-2/4-4-4-4-4-4-4-4-4/5-5-5-5-5/7-7-7-7-|


VERSE 2 - Play the following 2x

|-------------------------------------|
|-------------------------------------|
|-4/6-6-6---------------2-2-2---4-4-4-|
|-4/6-6-6-2-2-2-2-4/6-6-2-2-2---4-4-4-|
|-2/4-4-4-2-2-2-2-4/6-6-0-0-0-0h2-2-2-|
|---------0-0-0-0-2/4-4---------------|

|-----------------------------------|
|-----------------------------------|
|-4/6-6-6---------------2-2-2-------|
|-4/6-6-6-2-2-2-2-4/6-6-2-2-2-------|
|-2/4-4-4-2-2-2-2-4/6-6-0-0-0-------|
|---------0-0-0-0-2/4-4-------2~~~~-|


BRIDGE
                                   x4
|------------------------------------|
|------------------------------------|
|------------------------------------|
|---------/9-7-7-7-7\6-6-6-6\4-4-4-4-|
|-4p2-----/9-7-7-7-7\6-6-6-6\4-4-4-4-|
|-----4p2-/7-5-5-5-5\4-4-4-4\2-2-2-2-|


INTERLUDE
                        x2
|-------------------------|
|-------------------------|
|-6---------2-------------|
|-6----2----2----6--9~~~~-|
|-4----2----0----6--------|
|-4----0---------4--------|

|-------------------------------------|
|-------------------------------------|
|-------------------------------------|
|-4-4-4-4-4-4-4-4-4/7-7-7-7-7/9-9-9-9-|
|-4-4-4-4-4-4-4-4-4/7-7-7-7-7/9-9-9-9-|
|-2-2-2-2-2-2-2-2-2/5-5-5-5-5/7-7-7-7-|


VERSE 3 - Play the following 2x

|-------------------------------------|
|-------------------------------------|
|-4/6-6-6---------------2-2-2---4-4-4-|
|-4/6-6-6-2-2-2-2-4/6-6-2-2-2---4-4-4-|
|-2/4-4-4-2-2-2-2-4/6-6-0-0-0-0h2-2-2-|
|---------0-0-0-0-2/4-4---------------|

|-----------------------------------|
|-----------------------------------|
|-4/6-6-6---------------2-2-2-------|
|-4/6-6-6-2-2-2-2-4/6-6-2-2-2-------|
|-2/4-4-4-2-2-2-2-4/6-6-0-0-0-------|
|---------0-0-0-0-2/4-4-------2~~~~-|


CHORUS 2
                      x3
|-----------------------|
|-----------------------|
|-6---------------------|
|-6-6-7-7-6-7/9-9-4-4-2-|
|-4-6-7-7-6-7/9-9-4-4-2-|
|-4-4-5-5-4-5/7-7-2-2-0-|

|---------------------------------------|
|---------------------------------------|
|---------------------------------------|
|-4/6-6-6-6-6-6-6-6-6/7-7-7-7-7/9-9-9-9-|
|-4/6-6-6-6-6-6-6-6-6/7-7-7-7-7/9-9-9-9-|
|-2/4-4-4-4-4-4-4-4-4/5-5-5-5-5/7-7-7-7-|


OUTRO
                                      x3
|---------------------------------------|
|---------------------------------------|
|-----------------------------2-2-4-4/6-|
|-----------7-7-7-6-----4-4-4-2-2-4-4/6-|
|-4p2-------7-7-7-6-----4-4-4-0-0-2-2/4-|
|-----4p2p0-5-5-5-4-0h2-2-2-2-----------|

End on
|--------------------------------------------|
|--------------------------------------------|
|-----------------------------2-2-------6----|
|-----------7-7-7-6-----4-4-4-2-2-------6----|
|-4p2-------7-7-7-6-----4-4-4-0-0-X\\\\-4----|
|-----4p2p0-5-5-5-4-0h2-2-2-2-----X\\\\-4----|


FINAL RIFF - Tune to C F Bb Eb G C and play the 
Tap to rate this tab
 
# A B C D E F G H I J K L M N O P Q R S T U V W X Y Z