Song name
# A B C D E F G H I J K L M N O P Q R S T U V W X Y Z

Smashing Pumpkins - Marquis In Spades tab

INTRO
|----------------------------------------------------------------------|
|----------------------------------------------------------------------|
|-------8------------8------------8--------------7-7-7-10-10-10-12--12-|
|-5--5--8--8--3/5-5--8--8--3/5-5--8--8--8/10-10--7-7-7-10-10-10-12--12-|
|-5--5--6--8--3/5-5--6--8--3/5-5--6--8--8/10-10--5-5-5-8--8--8--10--10-|
|-3--3--6--6--1/3-3--6--6--1/3-3--6--6--6/8--8---5-5-5-8--8--8--10--10-|

 Lead
|-----------------|
|-----------------|
|-----------------|
|-5p3-------------|
|-----5p4p3---3h5-|
|-----------6-----|


VERSE
|------------------------------------|
|------------------------------------|
|-8-8-10-----------------------------|
|-8-8-10-8-10-10-10-10-5-5----5-5----|
|-6-6-8--8-10-10-10-10-5-5----5-5----|
|-6-6-8--6-8--8--8--8--3-3----3-3----|
                lead fill 1^      ^lead fill 2

|----------------------|
|----------------------|
|-8-8-10---------------|
|-8-8-10-8-10-10-10-10-|
|-6-6-8--8-10-10-10-10-|
|-6-6-8--6-8--8--8--8--|


Lead continued
|------------|
|------------|
|-8--/10\3/5-|
|------------|
|-6--/8-\1/3-|
|------------|

Lead fill 1
|-----------------|
|-----------------|                        
|-----------------|
|-5p3-------------|                        
|-----5p4p3---3h5-|
|-----------6-----|                      

Lead fill 2
|-----------------------|
|-----------------------|
|----------7------------|
|-8p7h8h10---10-8p7h8~~-|
|-----------------------|
|-----------------------|

Lead continued
|-----------------------------|
|-----------------------------|
|-----------------------------|
|-10p8h10b12~~-7~~-7h8p7\5~~--|
|-----------------------------|
|-----------------------------|


BRIDGE
                    x3
|---------------------|
|---------------------|
|-----------8-8-10-10-|
|-8-8-10-10-8-8-10-10-|
|-8-8-10-10-6-6-8--8--|
|-6-6-8--8--6-6-8--8--|

|-----------------------------------|
|-----------------------------------|
|-----------------------------------|
|-8-8-10-10-3-3-2-2-3-3-2-2-3/5-5-5-|
|-8-8-10-10-3-3-2-2-3-3-2-2-3/5-5-5-|
|-6-6-8--8--1-1-0-0-1-1-0-0-1/3-3-3-|


CHORUS
|----------------------------------------------------------------|
|----------------------------------------------------------------|
|-8------------8------------8--------------7-7-7-10-10-10-12--12-|
|-8--8--3/5-5--8--8--3/5-5--8--8--8/10-10--7-7-7-10-10-10-12--12-|
|-6--8--3/5-5--6--8--3/5-5--6--8--8/10-10--5-5-5-8--8--8--10--10-|
|-6--6--1/3-3--6--6--1/3-3--6--6--6/8--8---5-5-5-8--8--8--10--10-|

 Lead
|-----------------|
|-----------------|
|-----------------|
|-5p3-------------|
|-----5p4p3---3h5-|
|-----------6-----|


VERSE 2
|----------------------|
|----------------------|
|-8-8-10---------------|
|-8-8-10-8-10-10-10-10-|
|-6-6-8--8-10-10-10-10-|
|-6-6-8--6-8--8--8--8--|


BRIDGE 2
                    x3
|---------------------|
|---------------------|
|-----------8-8-10-10-|
|-8-8-10-10-8-8-10-10-|
|-8-8-10-10-6-6-8--8--|
|-6-6-8--8--6-6-8--8--|

|-----------------------------------|
|-----------------------------------|
|-----------------------------------|
|-8-8-10-10-3-3-2-2-3-3-2-2-3/5-5-5-|
|-8-8-10-10-3-3-2-2-3-3-2-2-3/5-5-5-|
|-6-6-8--8--1-1-0-0-1-1-0-0-1/3-3-3-|


CHORUS 2
|---------------------------------------------------------|
|---------------------------------------------------------|
|-8------------8------------8--------------7-7-7-10-10-10-|
|-8--8--3/5-5--8--8--3/5-5--8--8--8/10-10--7-7-7-10-10-10-|
|-6--8--3/5-5--6--8--3/5-5--6--8--8/10-10--5-5-5-8--8--8--|
|-6--6--1/3-3--6--6--1/3-3--6--6--6/8--8---5-5-5-8--8--8--|


INTERLUDE
|--------------------------------------|
|--------------------------------------|
|-8----------------8--10--------8--10--|
|-8----5----10--8--8--10--10----8--10--|
|-6----5----10--8--6--8---10----6--8---|
|-6----3----8---6--6--8---8-----6--8---|


CHORUS 3
|----------------------------------------------------------------|
|----------------------------------------------------------------|
|--------8------------8------------8--------------7-7-7-10-10-10-|
|-3/5-5--8--8--3/5-5--8--8--3/5-5--8--8--8/10-10--7-7-7-10-10-10-|
|-3/5-5--6--8--3/5-5--6--8--3/5-5--6--8--8/10-10--5-5-5-8--8--8--|
|-1/3-3--6--6--1/3-3--6--6--1/3-3--6--6--6/8--8---5-5-5-8--8--8--|


BRIDGE TO OUTRO
                      x4
|-----------------------|
|-----------------------|
|-12-12-8-8-----8/10-10-|
|-12-12-8-8-8-8-8/10-10-|
|-10-10-6-6-8-8-6/8--8--|
|-10-10-6-6-6-6-6/8--8--|

 Lead                      x4
|----------------------------|
|----------------------------|
|-12p10----------------------|
|-------12p11p10----10h12----|
|----------------13-------13-|
|----------------------------|


OUTRO
                        x8
|-------------------------|
|-------------------------|
|-------------------------|
|-3/5-5-5-3/5-5-5-5-5-8-8-|
|-3/5-5-5-3/5-5-5-5-5-8-8-|
|-1/3-3-3-1/3-3-3-3-3-6-6-|
Tap to rate this tab
 
# A B C D E F G H I J K L M N O P Q R S T U V W X Y Z