Song name
# A B C D E F G H I J K L M N O P Q R S T U V W X Y Z

Smashing Pumpkins - Pennies tab

INTRO/VERSE
                               x8
|--------------------------------|
|---------3-------------------6--|
|-----0-----0---------0------(0)-|
|---3---3-----3-----1-------5----|
|-1--------------3-------/6------|
|--------------------------------|


CHORUS
                 x2
|------------------|
|------------------|
|-10---7---8---8---|
|-10---7---8---8---|
|-8----5---6---6---|
|------------------|


VERSE 2
                               x2
|--------------------------------|
|---------3-------------------6--|
|-----0-----0---------0------(0)-|
|---3---3-----3-----1-------5----|
|-1--------------3-------/6------|
|--------------------------------|


BRIDGE
|-----------------|
|-----------------|
|---------5---8---|
|-5---5---5---8---|
|-5---5---3---6---|
|-3---3-----------|


VERSE 3
                               x6
|--------------------------------|
|---------3-------------------6--|
|-----0-----0---------0------(0)-|
|---3---3-----3-----1-------5----|
|-1--------------3-------/6------|
|--------------------------------|


CHORUS 2
                 x2
|------------------|
|------------------|
|-10---7---8---8---|
|-10---7---8---8---|
|-8----5---6---6---|
|------------------|


BRIDGE 2
                x2
|-----------------|
|-----------------|
|---------5---8---|
|-5---5---5---8---|
|-5---5---3---6---|
|-3---3-----------|


INTERLUDE
                x4
|-----------------|
|-----------------|
|-3---5---8---8---|
|-3---5---8---8---|
|-1---3---6---6---|
|-----------------|


BRIDGE 3
|-----------------|
|-----------------|
|---------5---8---|
|-5---5---5---8---|
|-5---5---3---6---|
|-3---3-----------|


OUTRO
                               x6
|--------------------------------|
|---------3-------------------6--|
|-----0-----0---------0------(0)-|
|---3---3-----3-----1-------5----|
|-1--------------3-------/6------|
|--------------------------------|

End on
|------|
|-3----|
|-0----|
|-3----|
|-1----|
|------|
Tap to rate this tab
# A B C D E F G H I J K L M N O P Q R S T U V W X Y Z