Song name
# A B C D E F G H I J K L M N O P Q R S T U V W X Y Z

Smashing Pumpkins - Where Boys Fear To Thread tab

|----------------------------------|
|----------------------------------|
|----------------------------------|
|----------------------------------|
|-/5-----------3-------------------|
|----4-4-0-0-0---1-3-3-3-3-3-3-3-3-|

|----------------------------------|
|----------------------------------|
|----------------------------------|
|----------------------------------|
|-/5-----------3-------------------|
|----4-4-0-0-0---1-3-3-3-3-3-3-3-2-|

                                  x3
|-----------------------------------|
|-----------------------------------|
|-----------------------------------|
|-----------------------------------|
|-----------------------------------|
|-1-1-0-1---1-0-1---1-1-1-1-1-1-3-2-|

|-----------------------------------|
|-----------------------------------|
|-----------------------------------|
|-----------------------------------|
|-----------------------------------|
|-1-1-0-1---1-0-1---1-1-1-1-1-1-1---|


VERSE
                                 x3
|----------------------------------|
|----------------------------------|
|----------------------------------|
|----------------------------------|
|-/5-----------3-------------------|
|----4-4-0-0-0---1-3-3-3-3-3-3-3-3-|

|----------------------------------|
|----------------------------------|
|----------------------------------|
|----------------------------------|
|-/5-----------3-------------------|
|----4-4-0-0-0---1-3-3-3-3-3-3-3-2-|


Lead fill
|---------|
|---------|
|---------|
|-/7~~~~--|
|---------|
|---------|


CHORUS
                                  x3
|-----------------------------------|
|-----------------------------------|
|-----------------------------------|
|-----------------------------------|
|-----------------------------------|
|-1-1-0-1---1-0-1---1-1-1-1-1-1-3-2-|

|-----------------------------------|
|-----------------------------------|
|-----------------------------------|
|-----------------------------------|
|-----------------------------------|
|-1-1-0-1---1-0-1---1-1-1-1-1-1-1---|


VERSE 2
                                 x3
|----------------------------------|
|----------------------------------|
|----------------------------------|
|----------------------------------|
|-/5-----------3-------------------|
|----4-4-0-0-0---1-3-3-3-3-3-3-3-3-|

|----------------------------------|
|----------------------------------|
|----------------------------------|
|----------------------------------|
|-/5-----------3-------------------|
|----4-4-0-0-0---1-3-3-3-3-3-3-3-2-|


CHORUS 2
                                  x3
|-----------------------------------|
|-----------------------------------|
|-----------------------------------|
|-----------------------------------|
|-----------------------------------|
|-1-1-0-1---1-0-1---1-1-1-1-1-1-3-2-|

|-----------------------------------|
|-----------------------------------|
|-----------------------------------|
|-----------------------------------|
|-----------------------------------|
|-1-1-0-1---1-0-1---1-1-1-1-1-1-1---|


VERSE 3
                                 x3
|----------------------------------|
|----------------------------------|
|----------------------------------|
|----------------------------------|
|-/5-----------3-------------------|
|----4-4-0-0-0---1-3-3-3-3-3-3-3-3-|

|----------------------------------|
|----------------------------------|
|----------------------------------|
|----------------------------------|
|-/5-----------3-------------------|
|----4-4-0-0-0---1-3-3-3-3-3-3-3-2-|


CHORUS 3 
                                  x3
|-----------------------------------|
|-----------------------------------|
|-----------------------------------|
|-----------------------------------|
|-----------------------------------|
|-1---0-1-----0-1---------------3-2-|

|-----------------------------------|
|-----------------------------------|
|-----------------------------------|
|-----------------------------------|
|-----------------------------------|
|-1---0-1-----0-1---1-1-1-1-1-1-1---|


VERSE 4
                                 x3
|----------------------------------|
|----------------------------------|
|----------------------------------|
|----------------------------------|
|-/5-----------3-------------------|
|----4-4-0-0-0---1-3-3-3-3-3-3-3-3-|

|----------------------------------|
|----------------------------------|
|----------------------------------|
|----------------------------------|
|-/5-----------3-------------------|
|----4-4-0-0-0---1-3-3-3-3-3-3-3-2-|


CHORUS 4
                                  x3
|-----------------------------------|
|-----------------------------------|
|-----------------------------------|
|-----------------------------------|
|-----------------------------------|
|-1---0-1-----0-1---------------3-2-|

|-----------------------------------|
|-----------------------------------|
|-----------------------------------|
|-----------------------------------|
|-----------------------------------|
|-1---0-1-----0-1---1-1-1-1-1-1-1---|


BRIDGE/OUTRO
                              x8
|-------------------------------|
|-------------------------------|
|-------------------------------|
|-------------------------------|
|-------------------------------|
|-1---0-1---0-1---1-1-1-1-1-1-0-|

                     x2
|----------------------|
|----------------------|
|----------------------|
|----------------------|
|----------------------|
|-1---0-1---0-1--------|

End on
|----------|
|----------|
|----------|
|----------|
|-/5-------|
|----4-4-0-|
Tap to rate this tab
# A B C D E F G H I J K L M N O P Q R S T U V W X Y Z