Song name
# A B C D E F G H I J K L M N O P Q R S T U V W X Y Z

Smashing Pumpkins - Chewing Gum tab

Riff 1
|---0-0-0-0-0-0------0-0-0-0-0-0-|
|---0-0-0-0-0-0------0-0-0-0-0-0-|
|---4/6-6-6-6-6------7-7-7-7-6-6-|
|---5/7-7-7-7-7------7-7-7-7-6-6-|
|---5/7-7-7-7-7------5-5-5-5-4-4-|
|---3/5-5-5-5-5---0--0-0-0-0-0-0-|

Riff 2
|--3-3-3-3-3--0-0-0-0--0-0-0-0-0--|
|--1-1-1-1-1--3-3-3-3--0-0-0-0-0--|
|--0-0-0-0-0--2-2-2-2--2-2-2-2-2--|
|--2-2-2-2-2--0-0-0-0--2-2-2-2-2--|
|--3-3-3-3-3--0-0-0-0--0-0-0-0-0--|
|---------------------------------|

Riff 3
|--3-3-3-3-3--0-0-0-0--0-0-0-0-0-0-0-0-0-0-|
|--1-1-1-1-1--3-3-3-3--0-0-0-0-0-0-0-0-0-0-|
|--0-0-0-0-0--2-2-2-2--2-2-2-2-2-0-0-0-0-0-|
|--2-2-2-2-2--0-0-0-0--2-2-2-2-2-2-2-2-2-2-|
|--3-3-3-3-3--0-0-0-0--0-0-0-0-0-2-2-2-2-2-|
|--------------------------------0-0-0-0-0-|

Riff 3a
|-0-0-0-0-0-0-0-0-0-0-|
|-0-0-0-0-0-0-0-0-0-0-|
|-2-2-2-2-2-0-0-0-0-0-|
|-2-2-2-2-2-2-2-2-2-2-|
|-0-0-0-0-0-2-2-2-2-2-|
|-----------0-0-0-0-0-|

Song:
Riff 1 x 7
Riff 2 x 1
Riff 1 x 3
Riff 2 x 1
Riff 1 x 7
Riff 2 x 1
Riff 3 x 1
Riff 3a x 4
Riff 1 Keep Playing, Fade out
Tap to rate this tab
# A B C D E F G H I J K L M N O P Q R S T U V W X Y Z