Song name
# A B C D E F G H I J K L M N O P Q R S T U V W X Y Z

Smashing Pumpkins - Infinite Sadness tab

Tuning: E A D G B E


INTRO
|-0--0--3----0----|
|-1--0--3----3----|
|-0--0--0----2----|
|-2--2--0----0----|
|-3--3--2---------|
|-------3---------|


VERSE
|-3----(0)----|
|-3----(3)----|
|-0----(2)----|
|-2----(0)----|
|-2-----------|
|-0-----------|


CHORUS - Play intro


VERSE 2 - Same


CHORUS 2 - Same


BRIDGE
|-3-----0----0----|
|-3--3--3----0----|
|-0--2--2----2----|
|-0--0--0----2----|
|-2----------0----|
|-3--2------------|


CHORUS 3/OUTRO - Same
Tap to rate this tab
# A B C D E F G H I J K L M N O P Q R S T U V W X Y Z