Song name
# A B C D E F G H I J K L M N O P Q R S T U V W X Y Z

Smashing Pumpkins - Song For A Son tab

Tuning:Standard

Ok,I have not given all the technique on how to play the song but here is something you 
knowb obviously means bend,an h above the b means half bend and the w above the 
means whole bend and so on.The tp in the solo means trem pick.Last of all the ah 
means artificial harmonic,theyre almost semi-ah,by this I mean you can hear the note you pick 

Acous GT
e|---0-----0-------------2-2-2-2-1-1-----1-1-1-1-1---------------------0-------|
B|-1-1-1-1-1-1-1-1-1-1-1-3-3-3-3-1-1-----1-1-1-1-1-1-1-1-0-0-0---0-0-3-0-0-0---|
G|-2-2-2-2-2-2-2-0-0-0-0-2-2-2-2-2-0h2p0-0-2-2-2-2-2-2-2-1-1-1-1-1-1-1-1-1-1---|
D|-2-2-2-2-2-2-2-2-2-2-2-0-0-0-0-3-3-----0-3-3-3-3-2-2-2-2-2-2-2-2-2-2-2-2-2---|
A|-0-0-0-0-0-0-0-3-3-3-3---------------------------0-0-0-2-2-2-2-2-2-2-2-2-2--|
E|-0-----------------------------------------------------------0-----0-0-------|
This is a song for a son This is a song for a sailor the best I ever had
This is a song for a kin This is a song for a tailor who stitched up my old heart

e|---0-------0-------------2-2-2-2-1-1-----1-1-1-1-1---------------------0-------|
B|-1-1-1-1-1-1-1-1-1-1-1-1-3-3-3-3-1-1-----1-1-1-1-1-1-1-1-0-0-0---0-0-3-0-0-0---|
G|-2-2-2-2-2-2-2-2-0-0-0-0-2-2-2-2-2-0h2p0-0-2-2-2-2-2-2-2-1-1-1-1-1-1-1-2-1-1---|
D|-2-2-2-2-2-2-2-2-2-2-2-2-0-0-0-0-3-3-----0-3-3-3-3-2-2-2-2-2-2-2-2-2-2-2-2-2---|
A|-0-0-0-0-0-0-0-0-3-3-3-3---------------------------0-0-0-2-2-2-2-2-2-1-1-2-2---|
E|-0-------------------------------------------------------------0-----0-0-------|
And II am one of many many more to come many more to come

e|---0-------0-------------2-2-2-2-1-1-----1-1-1-1-1---------------------0------2-1-0-|
B|-1-1-1-1-1-1-1-1-1-1-1-1-3-3-3-3-1-1-----1-1-1-1-1-1-1-1-0-0-0---0-0-3-0-1--1-3-1-0-|
G|-2-2-2-2-2-2-2-2-0-0-0-0-2-2-2-2-2-0h2p0-0-2-2-2-2-2-2-2-1-1-1-1-1-1-1-1-2--0-2-2-1-|
D|-2-2-2-2-2-2-2-2-2-2-2-2-0-0-0-0-3-3-----0-3-3-3-3-2-2-2-2-2-2-2-2-2-2---2--2-0-3-2-|
A|-0-0-0-0-0-0-0-0-3-3-3-3---------------------------0-0-0-2-2-2-2-2-2-1---0--3-----2-|
E|-0-------------------------------------------------------------0-----0---0--------0-|
And II am one of many many more to come many more to come

Elec GT2 (this is played over the last section of chords from the acous GT)
e|-3/5\3-3-2--------------------|
B|------------------------------|
G|-----------10-9-7-6*-5--/9\---|(*=harmonic)
D|-5/7\5-5-4--------------------|
A|------------------------------|
E|------------------------------|

Elec GT1
e|------------------------------------------------------------------------|
B|-----8-5\-----------------------8-5-5/7---------------------------------|
G|---------------------------5~-5-----------------------------------------|
D|---7------0-0-3-/7~-7-9-6---------------0-0-3-3p2---------------0-2~----|
A|-0------------------------------------------------3~-2-2p0--------------|
E|-----------------------------------------------------------4~/9---------|
|Elec GT2
e|-------0---------------2-------3p0---------------------0-------0h3p0-|
B|-----1---1-----1---------3---------1-----0-3-3/5-----1---1-----------|
G|-2-2-------------0---2-------2-------2---1-------2-2-----------------|
D|-2-----------2-----0-------3-----------3-2-------2-----------2-------|
A|-0---------3-----------------------------2-------0---------3---------|
E|---------------------------------------------------------------------|

--------2-------3p0-----------0------|
3p1-------0---------1-----0-3---5~---|
------2-------2-------2---1----------|
----0-------3-----------3-2----------|
--------------------------2----------|
-------------------------------------|
This is a song for a dove This is a song for a blown out bird the kind that dont return 
the nest This is a song for a star This is a song for a space invader who flew into the 
never to return never to return

Elec GT1
e|---------------------------------------------------------------------|
B|----------------------------------------------------------------w----|
G|---5\4/5-9~-9~--------w--------------------------14-16-13~-13-19b\---|
D|---------------------4b&r-4-4/10-10/14-12-10-9-----------------------|
A|-0-------------0h2/3---------------------------0---------------------|
E|---------------------------------------------------------------------|
|Elec GT2
e|--------------------------------------------------------------------------|
B|--------------------------------------------------------------------------|
G|------------------------w-------------------------------------------------|
D|---7\6/7-10~-10~-------4b&r-3~-3/7~-7/10~-9~-7~-5~---7-9-6~-6~-6/12~-6~---|
A|-0---------------0h2/3----------------------------------------------------|
E|---------------------------------------------------0----------------------|
I am one of many many more to come many more to come

Elec GT1
e|-----------------------------------------------------------------------|
B|----------------------------------------------------------------w------|
G|---5\4/5-9~-9~--------w--------------------------14-16-13~-13-19b\-----|
D|---------------------4b&r-4-4/10-10/14-12-10-9-------------------------|
A|-0-------------0h2/3---------------------------0-----------------------|
E|-----------------------------------------------------------------------|
|Elec GT2
e|---------------------------------------------------------------------|
B|---------------------------------------------------------------------|
G|------------------------w--------------------------------------------|
D|---7\6/7-10-10~--------4b&r-3~--------------7-9-6~-6~-6/12~-12/14~---|
A|-0--------------0h2/3~---------0-3~-2~-0-h--------------------------|
E|-----------------------------------------4b--------------------------|
I am one of many many more to come many more to come

SOLO Acous GT
e|----------------------2-2-2---|
B|-1-1-1--1-1-1--1-1-1--3-3-3---|(these chords are played over the 1st GT in the solo)
G|-2-2-2--2-2-2--0-0-0--2-2-2---|
D|-2-2-2--2-2-2--2-2-2--0-0-0---|
A|-0-0-0--0-0-0--3-3-3----------|
E|------------------------------|

1st soloing GT
e|----------------------------------------------------------------------------------------------|
B|----------------------------------------------ah-ah---h-------------------------------w-------|
G|--------w-------------ah---ah--ah---------ah---h-14-14b-14-17-16-14-16-17-16-14-12-9-7bp6\5---|
D|-12tp-12b-10-10-12-13p12-10\9-7\5---------10-10b----------------------------------------------|
A|----------------------------------7\5-10~-----------------------------------------------------|
E|----------------------------------------------------------------------------------------------|

1st soloing GT
e|------------------------------------------------w------------------2w-----------------w--------|
B|-------------------w--------------------15-13-15b-10-13-10-8-10\7-15b&r-13-15-13-15-15b&r-13-10|
G|9-11~-9h11p9------5b&rp4p3p0-------------------------------------------------------------------|
D|-------------10p7------------5p4p3p0-----------------------------------------------------------|
A|-------------------------------------3~--------------------------------------------------------|
E|-----------------------------------------------------------------------------------------------|

1st soloing GT
e|-------------------------------------w---------------------|
B|-13-12-12-13-10-13/17-15-12-15-17~-20b-17-20-17-20-21-22---|
G|-----------------------------------------------------------|
D|-----------------------------------------------------------|
A|-----------------------------------------------------------|
E|-----------------------------------------------------------|

2nd soloing GT (comes in at aprox 3min 14sec)
e|----------------------------------w--------------------------------------------------------|
B|---------------------------------7b---5--w-------------------------------------------------|
G|-7h9-7-5-7-9-7-5-11-12-11\9-9-11----7---7brp5-5h7/9-5~-5h7\2~-5p2-2/7-5-5/9-7-5-7/12-9~\---|
D|-------------------------------------------------------------------------------------------|
A|-------------------------------------------------------------------------------------------|
E|-------------------------------------------------------------------------------------------|

2nd soloing GT
e|-----------------------------------2w------w--h------------w----|
B|-12-13-12-13-15-13-12-13-12-13-15-15b~r\-20b~-b20r-20-17-20b~---|
G|-----------------------------------------19b~-------------------|
D|----------------------------------------------------------------|
A|----------------------------------------------------------------|
E|----------------------------------------------------------------|

2nd soloing GT w w 2w
e|------------------------------------------------------19br-19br-20b---|
B|-17-18-17h18p17-15h17p15-13h15p13-------------------------------------|
G|-------------------------------------------------17~\-----------------|
D|----------------------------------15-13-------------------------------|
A|----------------------------------------16-13/16----------------------|
E|----------------------------------------------------------------------|


This is a song for a son This is a song for a sailor the son I never had he sailed 
a map This is a song for that kid This is a song for that tailor who stitched up my old heart 
I broke it all all apart


Elec GT1
e|----------------------------------------------------------------------|
B|-----------------------------------------------------------------w----|
G|---5\4/5-9~-9~---------w--------------------------14-16-13~-13-19b\---|
D|----------------------4b&r-4-4/10-10/14-12-10-9-----------------------|
A|-0-------------0h2/3~---------------------------0---------------------|
E|----------------------------------------------------------------------|
|Elec GT2
e|-------------------------------------------------------------------------|
B|-------------------------------------------------------------------------|
G|------------------------w------------------------------------------------|
D|---7\6/7-10~-10~-------4b&r-3-3/7~-7/10~-9~-7~-5~---7-9-6~-6~-6/12~-6~---|
A|-0---------------0h2/3---------------------------------------------------|
E|--------------------------------------------------0----------------------|
I am one of many many more to come many more to come

Elec GT1
e|----------------------------------------------------------------------|
B|-----------------------------------------------------------------w----|
G|---5\4/5-9~-9~---------w--------------------------14-16-13~-13-19b\---|
D|----------------------4b&r-4-4/10-10/14-12-10-9-----------------------|
A|-0-------------0h2/3~---------------------------0---------------------|
E|----------------------------------------------------------------------|
|Elec GT2
e|---------------------------------------------------------------------|
B|---------------------------------------------------------------------|
G|------------------------w--------------------------------------------|
D|---7\6/7-10-10~--------4b&r-3~--------------7-9-6~-6~-6/12~-12/14~---|
A|-0--------------0h2/3~---------0-3~-2~-0-h--------------------------|
E|-----------------------------------------4b--------------------------|
I am one of many many more to come many more to come

Elec GT1
e|----------------------------------------------------------------------|
B|-----------------------------------------------------------------w----|
G|---5\4/5-9~-9~---------w--------------------------14-16-13~-13-19b\---|
D|----------------------4b&r-4-4/10-10/14-12-10-9-----------------------|
A|-0-------------0h2/3~---------------------------0---------------------|
E|----------------------------------------------------------------------|
|Elec GT2
e|-------------------------------------------------------------------------|
B|-------------------------------------------------------------------------|
G|------------------------w------------------------------------------------|
D|---7\6/7-10~-10~-------4b&r-3-3/7~-7/10~-9~-7~-5~---7-9-6~-6~-6/12~-6~---|
A|-0---------------0h2/3---------------------------------------------------|
E|--------------------------------------------------0----------------------|
You daughters of the revolution carry back your sons carry them back home

Elec GT1
e|--------------------------------------------------------------|
B|--------------------------------------------------------------|
G|---5\4/5-9~-9~--------w--------------------------14-16-13~\---|
D|---------------------4b&r-4-4/10-10/14-12-10-9----------------|
A|-0-------------0h2/3---------------------------0--------------|
E|--------------------------------------------------------------|
|Elec GT2
e|-------------------------------------------------------|
B|-------------------------------------------------------|
G|-------------------------w-----------------------------|
D|---7\6/7-10~-10~--------4b&r~-3~--------------7-9-6~---|
A|-0---------------0h2/3~----------0-3~-2~-0-h----------|
E|-------------------------------------------4b----------|
You daughters of the revolution carry back your sons home

This is a song for a son This is a song for a sailor The best I ever had he sailed without a map

sorry if there are any typos.
PLEASE RATE!
Tap to rate this tab
# A B C D E F G H I J K L M N O P Q R S T U V W X Y Z