Song name
# A B C D E F G H I J K L M N O P Q R S T U V W X Y Z

Smashing Pumpkins - We Only Come Out At Night tab

-----------------------------------------------------------------------------
              We Only Come Out at Night - Smashing Pumpkins
-----------------------------------------------------------------------------
Tabbed by: basuir79
E-mail: smithdude101@gmail.com

Tuning: Standard. No capo required :)

Intro/Verse

   G   Dm  C      G   Dm  C      G   Dm  F      G   Dm  C

e|-3---1---0------3---1---0------3---1---1------3---1---0---|
B|-0---3---1------0---3---1------0---3---1------0---3---1---|
G|-0---2---0------0---2---0------0---2---2------0---2---0---|
D|-0---0---2------0---0---2------0---0---3------0---0---2---|
A|-2-------3------2-------3------2--------------2-------3---|
E|-3--------------3--------------3--------------3-----------|

Chorus

   C7   F    Am   F     Am  C   G
 
e|-0----1----0----1-----0---0---3-------------|
B|-1----1----1----1-----1---1---0-------------|
G|-3----2----2----2-----2---0---0-------------|
D|-2----3----2----3-----2---2---0-------------|
A|-3---------0----------0---3---2-------------|
E|------------------------------3-------------|


   Dm   F    Am   F     Am  C   G
 
e|-1----1----0----1-----0---0---3-------------|
B|-3----1----1----1-----1---1---0-------------|
G|-2----2----2----2-----2---0---0-------------|
D|-0----3----2----3-----2---2---0-------------|
A|-----------0----------0---3---2-------------|
E|------------------------------3-------------|


   Dm   C    Dm     Am   G    Dm     F

e|-1----0----1------0----3----1------1--------|
B|-3----1----3------1----0----3------1--------|
G|-2----0----2------2----0----2------2--------|
D|-0----2----0------2----0----0------3--------|
A|------3-----------0----2--------------------|
E|-----------------------3--------------------|
   ^ "Through the empty space"

Play through all of that again. The 3rd time it plays the chorus is a little different.

   C7   F    Am   Em    F   G   F 
 
e|-0----1----0----0-----1---3---1-------------|
B|-1----1----1----0-----1---0---1-------------|
G|-3----2----2----0-----2---0---2-------------|
D|-2----3----2----2-----3---0---3-------------|
A|-3---------0----2---------2-----------------|
E|----------------0---------3-----------------|


   Am   C      F    G    C

e|-0----0------1----3----0-----------|
B|-1----1------1----0----1-----------|
G|-2----0------2----0----0-----------|
D|-2----2------3----0----2-----------|
A|-0----3-----------2----3-----------|
E|------------------3----------------|


   Dm   C    Dm     Am   G    Dm     F

e|-1----0----1------0----3----1------1--------|
B|-3----1----3------1----0----3------1--------|
G|-2----0----2------2----0----2------2--------|
D|-0----2----0------2----0----0------3--------|
A|------3-----------0----2--------------------|
E|-----------------------3--------------------|
   ^"It will help you sleep at night"


Repeat the intro/verse after that and keep playing C when it trails off at the end. Have fun! :)

************************************

| /   slide up
| \   slide down
| h   hammer-on
| p   pull-off
| ~   vibrato
| +   harmonic
| x   Mute note
| b   Bend
| pb  Pre-bend
| br  Bend release
| pbr Pre-bend release
| brb Bend release bend

************************************
Tap to rate this tab
# A B C D E F G H I J K L M N O P Q R S T U V W X Y Z