Song name
# A B C D E F G H I J K L M N O P Q R S T U V W X Y Z

Smashing Pumpkins - My Love Is Winter tab

-------------------------------------------------------------------------------
                             My Love Is Winter Solo - Smashing Pumpkins
-------------------------------------------------------------------------------
Tabbed by: Brian Wells
E-mail:

Tuning: Standard

e|----------------------------------------|
B|-----3---2-3-2--------------------------|
G|---------------4-2-4--------------------|X2
D|----------------------2--4--4/5--4-2-0-4|
A|-2--------------------------------------|
E|----------------------------------------|

e|-3-2-------2-0--------------3-2--------2-0-------|
B|-----5---------3-2--3-----------5----------3-2--3|
G|-------2--------------/4----------2--------------|
D|-------------------------------------------------|
A|-------------------------------------------------|
E|-------------------------------------------------|

e|-3-2-5-2-3-2---2---2----------7---------------3-2-5-2-3-2----------|
B|-------------5---5---5-3-2------7-8-10--8-7---------------5-3-2--/5|
G|-------------------------------------------------------------------|
D|-------------------------------------------------------------------|
A|-------------------------------------------------------------------|
E|-------------------------------------------------------------------|

e|-5-7-5---5---9-10-9-7-9------------------------------------------14-17-b17|
B|-------7------------------15-14-17-14-15-14----14-15-17-14-15-17----------|
G|--------------------------------------------16----------------------------|
D|--------------------------------------------------------------------------|
A|--------------------------------------------------------------------------|
E|--------------------------------------------------------------------------|
Tap to rate this tab
 
# A B C D E F G H I J K L M N O P Q R S T U V W X Y Z