Song name
# A B C D E F G H I J K L M N O P Q R S T U V W X Y Z

Smashing Pumpkins - Cherub Rock tab

------------------------------------19b--|
-----15b-------19b----17--19--17---------|
-----------------------------------------|
-----------------------------------------|
-----------------------------------------|
-----------------------------------------|

---19------17----16---17---16----17-------------------------|
----------------------------------------17------19b---------|
------------------------------------------------------------|
------------------------------------------------------------|
------------------------------------------------------------|
------------------------------------------------------------|

------------------------------------------------------------------|
------------------------------------------------------------------|
---19b----18b-----16h18---16/13---13h14---------------------------|
------------------------------------------11b------9b---9/--------|
------------------------------------------------------------------|
------------------------------------------------------------------|

-----------------------------------------------------------------------|
-----------------------------------------------------------------------|
-----------------------------------9---11---11b-----9------------------|
--------------------------------------------------------12-------------|
---9hp11--------7b---7b---7b------------------------------9/-----------|
-----------12----------------------------------------------------------|
Tap to rate this tab
# A B C D E F G H I J K L M N O P Q R S T U V W X Y Z