Song name
# A B C D E F G H I J K L M N O P Q R S T U V W X Y Z

Smashing Pumpkins - Dancing In The Moonlight chords

Highlighted       Show chord diagrams
Dancing in the Moonlight
Smashing Pumpkins
Thin Lizzy Cover

Standard Tuning EADGBe

Em7   022030
Dsus2 xx0230
Cadd9 x32033
G     320033

[Intro]
Em7 Dsus2 Cadd9 G x4
G

[Verse 1]
       Em7               Dsus2
When I passed you in the doorway
    Cadd9          G
you took me with a glance
Em7                    Dsus2
   should've took that last bus home
      Cadd9           G
but I asked you for a dance
            Em7           Dsus2
now we were steady to the pictures
  Cadd9                G
I always get chocolate stains on my pants
Em7                     Dsus2
    Pa says "he's going crazy"
         Cadd9       G
says I'm living in a trance

[Chorus]
               Em7
Dancing in the moonlight
Dsus2                    Cadd9
      it's got me in the spotlight
     G
it's alright, it's alright
Em7
moonlight
Dsus2               Cadd9            G
      on this long, hot summer night

[Verse 2]
     Em7                  Dsus2
It's three o'clock in the morning
    Cadd9          G
I'm on the streets again
Em7                   Dsus2
    disobeyed another warning
Cadd9                    G
should have been home by ten
      Em7          Dsus2
now I stay out til Sunday
  Cadd9         G
I have to say I stayed with friends
Em7                    Dsus2
    it's a habit we're forming
       Cadd9                G
it's a means to justify the end

[Chorus]

[Bridge]
Em7 Dsus2 Cadd9
G             Em7
  I'm walking home
Dsus2             C          G
      last bus is long gone

[Solo]

e|------------------------------------------------------------------|
B|------------------------------------------------------------------|
G|--------------------------------------------14gb16~~-(12)--11~~~~-|
D|-----------------------------------12-12/14-----------------------|
A|-----------------------------12/14--------------------------------|
E|-12~~-14b15r14-10-10/12~~-15--------------------------------------|

e|---------------------------12-12/14-12-15-14----------------------|
B|------------------------15-------------------12-13----------------|
G|-11h12p11\9/11-14-14/16----------------------------12h14p12\11h12-|
D|------------------------------------------------------------------|
A|------------------------------------------------------------------|
E|------------------------------------------------------------------|

e|------------------------------------------------------------------|
B|---------------------------------------------13p12p10-------------|
G|-11-12-11----11-14-14/16-14~~-12p11\9/11-12----------11-12-14-14b-|
D|----------14------------------------------------------------------|
A|------------------------------------------------------------------|
E|------------------------------------------------------------------|

e|------------------------------12-12/14-15-15b17b17b17b17b17b17~~-|
B|------------------------13-15------------------------------------|
G|b16--11h12p11\9h11/14~~------------------------------------------|
D|-----------------------------------------------------------------|
A|-----------------------------------------------------------------|
E|-----------------------------------------------------------------|

[Chorus]
Tap to rate this tab
 
# A B C D E F G H I J K L M N O P Q R S T U V W X Y Z