Song name
# A B C D E F G H I J K L M N O P Q R S T U V W X Y Z

Smashing Pumpkins - Mouths Of Babes tab

-------------------------------------------------------------------------------
                    MOUTHS OF BABES - Smashing Pumpkins
-------------------------------------------------------------------------------
Tabbed by: fetusrobot
E-mail: fetusrobot@gmail.com

Tuning: EADGBe

Disclaimer: this is how i play the song, i'm basically playing the notes one octave 
above the actual song. i find it way easier to play and it doesn't require down-tuning which 
is kind of a bitch. comments/corrections are welcome.

------------------------------------intro-------------------------------------


e|---------------------------------------------------------------------------|
B|---------------------------------------------------------------------------|
G|-5-3--------/8---8-7\\\3/5-5-5-5--/8---10/12---(repeat)--------------------|
D|-----5-3-1--/6---6-5\\\1/3-3-3-3--/6---8-/10-------------------------------|
A|---------------------------------------------------------------------------|
E|---------------------------------------------------------------------------|

--------------------------------verse/chorus----------------------------------


e|---------------------------------------------------------------------------|
B|---------------------------------------------------------------------------|
G|-10/12-12-12\3---3-3-x-x-5/7-7-7-7---8---10x10x-(repeat)-------------------|
D|-8-/10-10-10\1---1-1-x-x-3/5-5-5-5---6---8-x8-x----------------------------|
A|---------------------------------------------------------------------------|
E|---------------------------------------------------------------------------|
               so...       here   we   are


e|---------------------------------------------------------------------------|
B|---------------------------------------------------------------------------|
G|-10/12-12-12\3---3-3-x-x-5/7-7-7-7---8---10x10x-(repeat)-------------------|
D|-8-/10-10-10\1---1-1-x-x-3/5-5-5-5---6---8-x8-x----------------------------|
A|---------------------------------------------------------------------------|
E|---------------------------------------------------------------------------|
   mouths of   babes  sing re  vo      lution

-----------------------------------bridge-------------------------------------


e|---------------------------------------------------------------------------|
B|---------------------------------------------------------------------------|
G|-5-3-0---108---8-8-8-7---7-7-7-5---5-5---5-3-0-----------------------------|
D|---------8-6---6-6-6-5---5-5-5-3---3-3---(repeat)--------------------------|
A|---------------------------------------------------------------------------|
E|---------------------------------------------------------------------------|
               ts'intheway     i walk   thru fire


(strum slowly)

e|---------------------------------------------------11~---------------------|
B|---------------------------------------------------------------------------|
G|-12---3---8---7---x-x---8~~-12---3---8---7---x-x---8~~---------------------|
D|-10---1---6---5---x-x-------10---1---6---5---x-x---------------------------|
A|---------------------------------------------------------------------------|
E|---------------------------------------------------------------------------|

e|---------------------------------------------------------------------------|
B|---------------------------------------------------------------------------|
G|-5-5-5-5-5-5-5-5-8-8-8-8-10101010-10~~~~-----------------------------------|
D|-3-3-3-3-3-3-3-3-6-6-6-6-8-8-8-8-------------------------------------------|
A|---------------------------------------------------------------------------|
E|---------------------------------------------------------------------------|


------------------------------------------------------------------------------
following you just need to play the verse/chorus again and then the intro, then just 
stop abruptly and get some feedback going - or don't.

thanks dont forget to comment rate and subscribe
Tap to rate this tab
# A B C D E F G H I J K L M N O P Q R S T U V W X Y Z