Song name
# A B C D E F G H I J K L M N O P Q R S T U V W X Y Z

Smashing Pumpkins - Daydream tab

Smashing Pumpkins - Daydream
Transcribed by FUDGEcenter

Tuning: E A D F# B D CAPO on 2nd fret




  My daydream seems
D |-0--0--0--0-|
B |-0--0--0--5-|
F#|-5--5--5--5-|
D |-0--0--4--0-|
A |-4--6--0--4-|
E |----------5-|


  as one inside of you
D |-0--0--0----|
B |-0--0--5----|
F#|-5--5--5----|
D |-0--0--0----|
A |-4--0--4----|
E |-0--4--5----|

That's pretty much it.. just listen to the song.

  @1:26 (Billy Plays this live)
D |-0--0--0-----------|
B |-5--4--0---0--0----|
F#|-----------5--3----|
D |--------------0----|
A |-------------------|
E |-------------------|
Tap to rate this tab
# A B C D E F G H I J K L M N O P Q R S T U V W X Y Z